PrimaNota.ru - самый крупный в мире бесплатный архив песенных текстов, аккордов, табулатур и нот


G. Love & Special Sauce - Breakin Up - таба, видео

Регистрация Запомнить меня
Войти через:  Facebook Google Twitter Vk Yandex Mail.ru

G. Love & Special Sauce - Breakin Up - таба, видео

Печатать
Просмотров: 161
intro
--0-0-3-1-3-0-----0-0-3---|
--1-0-3-1-1-1-----1-0-3---|
--0-0-4-2-2-2-----0-0-4---|
--2-2-5-3-3-3-----2-2-5---|
--3-2-x-x-x-x-----3-2-x---|
----0-3-1-1-1-------0-3---|

verse

--0-0-3-1-3-0----|
--1-0-3-1-1-1----|
--0-0-4-2-2-2----|
--2-2-5-3-3-3----|
--3-2-x-x-x-x----|
----0-3-1-1-1----|

"why won't you let me love you"

--1--3-0--1-3-0--1-5-0--1-5-0----|
--1--3-0--1-3-0--1-3-0--1-3-0----|
--2--4-4--2-4-4--2-4-4--2-4-4----|
--3--5-5--3-5-5--3-5-5--3-5-5----|
--x--x-x--x-x-x--x-x-x--x-x-x----|
--1--3-3--1-3-3--1-3-3--1-3-3----|
use thumb on low notes on all bar chords

hopefully this is close to how it should be
Добавлено: 05.11.2013
Другие материалы по этой песне:
  • Аккорды и текст

Страница создана 05.11.2013
http://primanota.ru/g-love-and-special-sauce/breakin-up-chords.htm
Привет, Гость.
Предлагаем пройти революционный курс по гитаре.
Подарок от PrimaNota.Ru, забирай!