PrimaNota.ru - самый крупный в мире бесплатный архив песенных текстов, аккордов, табулатур и нот


G-eazy - Remember You - таба, видео

Регистрация Запомнить меня
Войти через:  Facebook Google Twitter Vk Yandex Mail.ru

G-eazy - Remember You - таба, видео

Печатать
Просмотров: 191
-------------------------------------------------------------------------------
                             Remember You - G-Eazy
-------------------------------------------------------------------------------
Tabbed by:Mike R
E-mail:

Tuning:Standard 

e|---------------------------------------------------------------------------|
B|---------------------------------------------------------------------------|
G|---7---7h9p7---7-2--------12----12h14p12----12--14-------------------------|
D|---------------------------------------------------------------------------|   x2
A|---------------------------------------------------------------------------|
E|--7--7------7----2------12---12----------12-----14-------------------------|


This plays through the hook and the verses 
e|---------------------------------------------------------------------------|
B|---------------------------------------------------------------------------|
G|----7----7-------2---2--------12-----12--------14----14--------------------|
D|---------------------------------------------------------------------------|
A|---------------------------------------------------------------------------|
E|--7----7-------2---2-------12-----12--------14----14-----------------------|




************************************

| /   slide up
| \   slide down
| h   hammer-on
| p   pull-off
| ~   vibrato
| +   harmonic
| x   Mute note
| b   Bend
| pb  Pre-bend
| br  Bend release
| pbr Pre-bend release
| brb Bend release bend

************************************
Добавлено: 06.08.2015
Другие материалы по этой песне:
  • Аккорды и текст

Страница создана 06.08.2015
http://primanota.ru/g-eazy/remember-you-chords.htm
Привет, Гость.
Предлагаем пройти революционный курс по гитаре.
Подарок от PrimaNota.Ru, забирай!