PrimaNota.ru - самый крупный в мире бесплатный архив песенных текстов, аккордов, табулатур и нот


Fuzigish - Easy Tiger - таба, видео

Регистрация Запомнить меня
Войти через:  Facebook Google Twitter Vk Yandex Mail.ru

Fuzigish - Easy Tiger - таба, видео

Печатать
Просмотров: 129
Great song....
Easy tiger from the new fuzigish album, uploaded others so check them out!!!!
marcellness@gmail.com

This is the intro
|------------------------------------------------5--8--5---------|
|--------------------5--8--5-------------------------------------|
|----55-5-5----------------------5-5-5---------------------------|
|------7-7-7-5--7-----------------7-7-7-5--7---------------------|
|----------------------------------------------------------------|
|----------------------------------------------------------------|

|--------------------------------------------------------------------|
|--------------------------------------------------------------------|
|---5--7-7------5-5--7-7-----------------------------5--7-7--5-5--77-|
|----------------------------5-5--7-7---5-5--7-7---------------------|
|--------------------------------------------------------------------|
|--------------------------------------------------------------------|

|----------------|
|----------------|
|----------------|
|---5/7---7------|
|----------------|
|----------------|

|------------------------------------------------5--8--5---------|
|--------------------5--8--5-------------------------------------|
|----55-5-5----------------------5-5-5---------------------------|
|------7-7-7-5--7-----------------7-7-7-5--7---------------------|
|----------------------------------------------------------------|
|----------------------------------------------------------------|

|--------------------------------------------------------------------|
|--------------------------------------------------------------------|
|---5--7-7------5-5--7-7-----------------------------5--7-7--5-5--77-|
|----------------------------5-5--7-7---5-5--7-7---------------------|
|--------------------------------------------------------------------|
|--------------------------------------------------------------------|

|----------------|
|----------------|
|---5/7\5--------|
|-----------7----|
|----------------|
|----------------|


Verse main riff
|----------------------------------------------------------|
|---5--5--5--5---6--6--6--6----5--5--5--5---6--6--6--6-----|
|---5--5--5--5---5--5--5--5----5--5--5--5---5--5--5--5-----|
|----------------------------------------------------------|
|----------------------------------------------------------|
|----------------------------------------------------------|
This riff is played until the pre chorus which i'm still working on so enjoy!!!!
Добавлено: 15.05.2012
Другие материалы по этой песне:
  • Аккорды и текст

Страница создана 15.05.2012
http://primanota.ru/fuzigish/easy-tiger-chords.htm
Привет, Гость.
Предлагаем пройти революционный курс по гитаре.
Подарок от PrimaNota.Ru, забирай!