PrimaNota.ru - самый крупный в мире бесплатный архив песенных текстов, аккордов, табулатур и нот


Fuzigish - Bombs away - бас-таба, видео

Регистрация Запомнить меня
Войти через:  Facebook Google Twitter Vk Yandex Mail.ru

Fuzigish - Bombs away - бас-таба, видео

Печатать
Просмотров: 79


Band:Fuzigish
Song:Bombs away
Album: Exploitedamp;Distorted
Tabbed:jaegerheger@web.de

Intro:
G:-----------------------------------------------
D:-----------------------------------------------
A:---------9------------7-7--------9-------------
E:-7-7-7-7--7--10-10-10----7-7-7-7--7-10-10-10---

G:-----------------------------------------------
D:-----------------------------------------------
A:-----------------9-----------7-7--------9------
E:-9-9-9-9-7-7-7-7--7-10-10-10----7-7-7-7--7-----

E-10-10-10-9----

Verse:
G:-----------------------------------------------
D:-----------------------------------------------
A:------9-----------7-7------9-------------------
E:7-7-7---7-10-10-10----7-7-7--7-10-10-10-9-9-9-9

Chorus:
G:-----------------------------------------------
D:-----------------------------------------------
A:--------------5-5-5-5--------------------------
E:7-7-7-3-3-3-3---------55-66-7777---------------


Guitar Solo:   _ you must listen to the song_
G:-----------------------------------------------
D:-----------------------------------------------
A:--------9-9-9-9----------7-7-7-7-----7-7-7-7---
E:7-7-7-7---------10-10-10-----------------------

G:-----------------------------------------------
D:-9-9-9-9----------7-7-7-7----------------------
A:---------10-10-10----------_7(x15)---10 (x15)_-
E:-----------------------------------------------

Chorus at End:
G:-----------------------------------------------
D:-----------------------------------------------
A:-------55----------55--------------------------
E:-77-33----55-77-33----55-----------------------

End on:
E:---7---

Добавлено: 18.02.2014
Другие материалы по этой песне:
  • Аккорды и текст

Страница создана 18.02.2014
http://primanota.ru/fuzigish/bombs-away-chords.htm
Привет, Гость.
Предлагаем пройти революционный курс по гитаре.
Подарок от PrimaNota.Ru, забирай!