PrimaNota.ru - самый крупный в мире бесплатный архив песенных текстов, аккордов, табулатур и нот


Futures - Island In The Sea - таба, видео

Регистрация Запомнить меня
Войти через:  Facebook Google Twitter Vk Yandex Mail.ru

Futures - Island In The Sea - таба, видео

Печатать
Просмотров: 121
                Verse

e|--------------------------------------------------|
B|--------------------------------------------------|
G|--------------------------------------------------|
D|--0------0-----0---------------0------------------|
A|--5-x12--9-x4--5-x8--------7-7---7----------------|
D|---------------------7-x4-------------------------|



e|--------------------------------------------------|
B|--------------------------------------------------|
G|--------------------------------------------------|
D|------0-------0-------0-------0-------------------|
A|-----------------------------------x2-------------|
E|--9-9---9-9-9---9-9-9---9-7-7---7-----------------|



e|--------------------------------------------------|
B|--------------------------------------------------|
G|--------------------------------------------------|
D|------0-------0-------0-------0-------------------|
A|--------------------------------------------------|
E|--5-5---5-5-5---5-2-2---2-2-2---2-----------------|



e|--------------------------------------------------|
B|--------------------------------------------------|
G|--------------------------------------------------|
D|--0------0-----0------0---------------------------|
A|--5-x12--9-x4--7-x16--11-x16----------------------|
E|--------------------------------------------------|


                                      Chorus
e|--2-----0-----0-----0-----0-----------------------|
B|--3-----0-----7-----2-----3-----------------------|
G|--2—x8--6-x8--0-x6--0-x2--0-x8--------------------|
D|--0-----7-----0-----0-----0-----------------------|
A|--0-----0-----0-----0-----0-----------------------|
E|--0-----x-----9-----4-----5-----------------------|

                                       Bridge
e|----------------------------------0---------------|
B|----------------------------------2---------------|
G|----------------------------------0-x8------------|
D|--0------0-----0-----0------x4----0---------------|
A|--5-x16--9-x8--7-x4--12-x4--------0---------------|
E|----------------------------------4---------------|
Добавлено: 14.04.2012
Другие материалы по этой песне:
  • Аккорды и текст

Страница создана 14.04.2012
http://primanota.ru/futures/island-in-the-sea-chords.htm
Привет, Гость.
Предлагаем пройти революционный курс по гитаре.
Подарок от PrimaNota.Ru, забирай!