PrimaNota.ru - самый крупный в мире бесплатный архив песенных текстов, аккордов, табулатур и нот


Future Of The Left - You Need Satan More Than He Needs You - бас-таба, видео

Регистрация Запомнить меня
Войти через:  Facebook Google Twitter Vk Yandex Mail.ru

Future Of The Left - You Need Satan More Than He Needs You - бас-таба, видео

Печатать
Просмотров: 68
Great song by FOTL and a killer bass riff in it
It's tuned to stand and is pretty easy

Verse/Outro

G|-------6----6-5---5-6------------------------------------------------------|
D|-/6p5h6---------6-----6-5-6-5----------------------------------------------|
A|------------------------------6-5-6-4--------------------------------------|
E|---------------------------------------------------------------------------|

Pre-Chorus

G|--------8----8-7---7-8-----------------------------------------------------|
D|-/6h7h8----------8---------------------------------------------------------|
A|---------------------------------------------------------------------------|
E|---------------------------------------------------------------------------|

Chorus
(This is also what the synth plays in the intro
And throughout the song)
G|---------------------------------------------------------------------------|
D|---------------------------------------------------------------------------|
A|-4-4-44-4-4-4-4-0-2-3-4-4-44-4-4-4-4---------------------------------------|
E|---------------------------------------------------------------------------|

| /  slide up
| \  slide down
| h  hammer-on
| p  pull-off
| ~  vibrato
| +  harmonic
| x  Mute note
===============================================================================
Добавлено: 20.12.2015
Другие материалы по этой песне:
  • Аккорды и текст

Страница создана 20.12.2015
http://primanota.ru/future-of-the-left/you-need-satan-more-than-he-needs-you-chords.htm
Привет, Гость.
Предлагаем пройти революционный курс по гитаре.
Подарок от PrimaNota.Ru, забирай!