PrimaNota.ru - самый крупный в мире бесплатный архив песенных текстов, аккордов, табулатур и нот


Future Of The Left - The Lord Hates A Coward - бас-таба, видео

Регистрация Запомнить меня
Войти через:  Facebook Google Twitter Vk Yandex Mail.ru

Future Of The Left - The Lord Hates A Coward - бас-таба, видео

Печатать
Просмотров: 113
Artist : Future Of The Left
Album  : Curses
Song   : The Lord Hates A Coward
Tabbed By Rob Price
(Stereopricey@hotmail.com)

Straight forward bass line for an incredible album opener.
Constructive Comments Welcome & Structure is at the bottom


Add Mega Distortion

Riff 1 (x 16)
G---------------------------------------------|
D---------------------------------------------|
A---------------------------------------------|
E-2-2-2-2-2--2-2-2-2-1-\-5-5-5-5-5--5-5-5-5-0-|


Riff 2 (x1)
G--------------------------------------------|
D--------------------------------------------|
A--------------------------------------------|
E-7-7-7-7-7--7-7-7-7-7--7-7-7-7-7--7-7-7-7-7-|

G-----------11---------------------11---------- (G--11---|Live Variation)
D--------------------------------------------------------|
A-9-9-9-9-9---9-9-9-9--9-9-9-9-9-----9-9-9-9-------------|
E--------------------------------------------------------|

Riff 1 (x 16)
Riff 2 (x 2)

Riff 3 (x 1)
G---------------------------------------------|
D---------------------------------------------|
A---------------------------------------------|
E-2-2-2-2-2--2-2-2-2-1-\-5-5-5-5-5--5-5-5-5-0-|

G----------------------------------------------|
D----------------------------------------------|
A----------------------------------------------|
E-2-2-2-2-2--2-2-2-2-1-\-5-5-5-5-5--5-5-5-5----|

G----------------------------------------------|
D----------------------------------------------|
A----------------------------------------------|
E-2-2-2-2-2--2-2-2-2-1-\-5-5-5-5-5--5-5-5-5----|

G---------------------|
D---------------------|
A---------------------|
E-7-7-7-7--7-7-7-7----|

Riff 1 (x 2) End with a slide down

Finito
Добавлено: 30.04.2012
Другие материалы по этой песне:
  • Аккорды и текст

Страница создана 30.04.2012
http://primanota.ru/future-of-the-left/the-lord-hates-a-coward-chords.htm
Привет, Гость.
Предлагаем пройти революционный курс по гитаре.
Подарок от PrimaNota.Ru, забирай!