PrimaNota.ru - самый крупный в мире бесплатный архив песенных текстов, аккордов, табулатур и нот


Future Of The Left - Manchasm - бас-таба, видео

Регистрация Запомнить меня
Войти через:  Facebook Google Twitter Vk Yandex Mail.ru

Future Of The Left - Manchasm - бас-таба, видео

Печатать
Просмотров: 109
Artist : Future Of The Left
Song   : Manchasm
Album  : Curses
Tabbed By Rob Price
Stereopricey@hotmail.com

Brilliant Song, Brilliant Band. During The Bridge & Outro, there is no bass only synth, 
i've
included the synth bass notes if you want to play them

Add Distortion

Main Riff (Mark Foley Was Right....)
G---------------------------------|
D---------------------------------|
A-0-00-2-3----3-5--7-77-5-3---3-2-|
D---------------------------------|

Bridge (Every Minute Matters...)
G----------------------------------|
D----------------------------------|
A----------------------------------|
D-7~------5~------0~------3~--2~---|

Middle
G---------------------------------------------------|
D---------------------------------------------------|
A-0-0-0-0--0-3-3-3-7-7-3-3--0-0-0-0--0-3-3-3--3-2-0-|
D---------------------------------------------------|


Outro (Colin Is A Pussy, A Very Pretty Pussy...)
G----------------------------------|
D----------------------------------|
A----------------------------------|
D-7~------5~------0~------3~--2~---|

Audience PLEASE!
Добавлено: 08.07.2012
Другие материалы по этой песне:
  • Аккорды и текст

Страница создана 08.07.2012
http://primanota.ru/future-of-the-left/manchasm-chords.htm
Привет, Гость.
Предлагаем пройти революционный курс по гитаре.
Подарок от PrimaNota.Ru, забирай!