PrimaNota.ru - самый крупный в мире бесплатный архив песенных текстов, аккордов, табулатур и нот


Future Of The Left - I Am The Least Of Your Problems - таба, видео

Регистрация Запомнить меня
Войти через:  Facebook Google Twitter Vk Yandex Mail.ru

Future Of The Left - I Am The Least Of Your Problems - таба, видео

Печатать
Просмотров: 64
Future of the Left - I Am the Least of Your Problems
Tuning: Standard


Intro / Post Chorus
E|---------------------------------------------------------------------------------------------|
B|---------------------------------------------------------------------------------------------|
G|--11--11--11--11--11--11--11--12--12--11--11--11--11--11--11--12--11--12/16--12--12--11--12--|
D|---------------------------------------------------------------------------------------------|
A|---------------------------------------------------------------------------------------------|
E|---------------------------------------------------------------------------------------------|



E|-----------------------------------------------------------------------------------|
B|-----------------------------------------------------------------------------------|
G|--11--11--11--11--11--11--11-------------------------------------------------------|
D|------------------------------9--9--9--9--11--12--11--9--11--12--11--9--11--12--9--|
A|-----------------------------------------------------------------------------------|
E|-----------------------------------------------------------------------------------|


Verse
E|----------------------------------------|
B|----------------------------------------|
G|------------------7-7-7-7---------------|
D|--9-9-9-9-9-9-9-9-7-7-7-7-5-5-5-5-------|
A|--9-9-9-9-9-9-9-9-5-5-5-5-5-5-5-5-------|
E|--7-7-7-7-7-7-7-7---------3-3-3-3-------|

Chorus

Guitar 1
E|-------------------------------------------------------------|
B|-------------------------------------------------------------|
G|------------------7-7-7-7--------------------------7-7-7-7---|
D|--9-9-9-9-9-9-9-9-7-7-7-7-5-5-5-5--9-9-9-9-9-9-9-9-7-7-7-7---|
A|--9-9-9-9-9-9-9-9-5-5-5-5-5-5-5-5--9-9-9-9-9-9-9-9-5-5-5-5---|
E|--7-7-7-7-7-7-7-7---------3-3-3-3--7-7-7-7-7-7-7-7-----------|

Guitar 2
E|--------------------------------------------------------------------|
B|--------------------------------------------------------------------|
G|--------------------------------------------------------------------|
D|--13---9---9--10--9--10--9--7--5---13--------9-----17--17--17--17---|
A|--------------------------------------------------------------------|
E|--11---7---7--8---7--8---7--5--3---11--------7-----15--15--15--15---|

Outro Riff Bit
E|--------------------------------------------------------------------------|
B|--------------------------------------------------------------------------|
G|--------------------------------------12--11--9--11--12--11--9--11--12--9-|
D|--12--11--9--11--12--11--9--11--12--9-------------------------------------|
A|--------------------------------------------------------------------------|
E|--------------------------------------------------------------------------|

E|----------------------------------------------------------------------|
B|----------------------------------------------------------------------|
G|----------------------------------------------------------------------|
D|--12--11--9--11--12--11--9--11--12--11--9-----------------------------|
A|----------------------------------------9-----------------------------|
E|----------------------------------------7-----------------------------|

End
Добавлено: 29.09.2013
Другие материалы по этой песне:
  • Аккорды и текст

Страница создана 29.09.2013
http://primanota.ru/future-of-the-left/i-am-the-least-of-your-problems-chords.htm
Привет, Гость.
Предлагаем пройти революционный курс по гитаре.
Подарок от PrimaNota.Ru, забирай!