PrimaNota.ru - самый крупный в мире бесплатный архив песенных текстов, аккордов, табулатур и нот


Future Of The Left - Fingers Become Thumbs - бас-таба, видео

Регистрация Запомнить меня
Войти через:  Facebook Google Twitter Vk Yandex Mail.ru

Future Of The Left - Fingers Become Thumbs - бас-таба, видео

Печатать
Просмотров: 91
Artist : Future Of The Left
Album  : Curses
Song   : Fingers Become Thumbs!
Tabbed By Rob Price

Some awkward distorted variations to pick out on this song, but i'm sure i'm close. 
comments welcome. Thanks.


Distorted Bass

Intro
G-9----------------|
D---7--------------|
A-----79-9-9-9-9-9-|
E------------------|

Verse
G------------------------------------|
D--------------------7---------------|
A-77-8-9-9-9-9-9-9-7---7-9-9-9-9-9-9-| x 3
E------------------------------------|


G------------------------|
D--------------------7---|
A-77-8-9-9-9-9-9-9-7---7-|
E------------------------|


Chorus 1
G-----------------------------------------------------------|
D-----------------------------------------------------------|
A-9-9-9-9-9-9-9-9-9-9-9-9-9-9-9-9-9-9-9-9-9-9-9-9-9-9-9-9-9-|
E-----------------------------------------------------------|

G------------------|
D------------------|
A-77-8-9-9-9-9-9-9-|
E------------------|


Verse


Chorus 2
G-------------------------------------------------------------------|
D-------------------------------------------------------------------|
A-9-9-9-9-9-9-9-9-9-9-9-9-9-9-9-9-9-9-9-9-9-9-9-9-9-9-9-9-9-9-9-9-9-|
E-------------------------------------------------------------------|


Bridge
G-9----------7-79-----------7-79-----|
D---7----7-9------7-----7-9------7---|
A-----79------------79------------79-|
E------------------------------------|


Final Verse
G------------------------------------------------|
D------------------------------------------------|
A-9-9-9-9-9-9-9-9-9-9-9-9-9-9-9-9-----7----7-----|
E---------------------------------7-9--7-9---5-0-|

^^ Can't pick out those low distorted variations so i play this something like this - 
it with those Off beats


Outro/Final Chorus
G---------------------|
D---------------------|
A-9-9-9-9-9-9-9-9 etc-|
E---------------------|
Добавлено: 04.03.2012
Другие материалы по этой песне:
  • Аккорды и текст

Страница создана 04.03.2012
http://primanota.ru/future-of-the-left/fingers-become-thumbs-chords.htm
Привет, Гость.
Предлагаем пройти революционный курс по гитаре.
Подарок от PrimaNota.Ru, забирай!