PrimaNota.ru - самый крупный в мире бесплатный архив песенных текстов, аккордов, табулатур и нот


Future Of The Left - Beneath The Waves An Ocean - бас-таба, видео

Регистрация Запомнить меня
Войти через:  Facebook Google Twitter Vk Yandex Mail.ru

Future Of The Left - Beneath The Waves An Ocean - бас-таба, видео

Печатать
Просмотров: 68
-------------------------------------------------------------------------------
                Beneath The Waves An Ocean - Future Of The Left
-------------------------------------------------------------------------------
Tabbed by: James Peacock

Tuning:

Verse Riff: (Varies between these two lines)

G|----------------|----------------|----------------|---------------------|----|
D|----------------|----------------|----------------|---------------------|----|
A|----------------|----------------|----------------|--------9-11-9-------|----|
E|9-0-9-0-9-0-9-0-|9-0-9-0-9-0-9-9-|9-0-9-0-9-0-9-0-|9-11-12--------12-11-|9-0-| etc.

G|----------------|----------------|----------------|------------------|---------|
D|----------------|----------------|----------------|------------------|---------|
A|----------------|----------------|----------------|----------------9-|11-0-----|
E|9-0-9-0-9-0-9-0-|9-0-9-0-9-0-9-9-|9-0-9-0-9-0-9-0-|9-0-9-0-9-11-12---|-----9-0-| etc.


Pre-Chorus ("Excuse me madam...")

G|----------------|----------------|----------------|----------------|
D|----------------|----------------|9-9-9-9-9-9-9-9-|9-9-9-9---------|
A|----------------|----------------|----------------|--------5-5-5-5-|
E|9-9-9-9-9-9-9-9-|9-9-9-9-9-9-9-9-|----------------|----------------| X2


Chorus ("You're not just...")

G|----------------|----------------|----------------|----------------|
D|----------------|----------------|----------------|----------------|
A|----------------|7-7-7-7-7-7-7-7-|----------------|--------9-9-9-9-|
E|5-5-5-5-5-5-5-5-|----------------|7-7-7-7-7-7-7-7-|7-7-7-7---------| X2

G|----------------|----------------|----------------|----------------|
D|----------------|----------------|----------------|----------------|
A|----------------|7-7-7-7-7-7-7-7-|----------------|----------------|
E|5-5-5-5-5-5-5-5-|----------------|7-7-7-7-7-7-7-7-|7-7-7-7-7-7-7-7-|


Bridge ("No way you'll ever find peace...")

G|----------------|----------------|----------------|----------------|
D|----------------|----------------|----------------|----------------|
A|----------------|----------------|----------------|--------7-7-7-7-|
E|9-9-9-9-9-9-9-9-|9-9-9-9-9-9-9-9-|7-7-7-7-7-7-7-7-|7-7-7-7---------|

G|----------------|----------------|----------------|----------------|
D|----------------|----------------|----------------|----------------|
A|----------------|----------------|----------------|----------------|
E|9-9-9-9-9-9-9-9-|9-9-9-9-9-9-9-9-|7-7-7-7-7-7-7-7-|7-7-7-7-7-7-7-7-|
Добавлено: 20.12.2015
Вам также может быть интересно:
Другие материалы по этой песне:
  • Аккорды и текст

Страница создана 20.12.2015
http://primanota.ru/future-of-the-left/beneath-waves-an-ocean-chords.htm
Привет, Гость.
Предлагаем пройти революционный курс по гитаре.
Подарок от PrimaNota.Ru, забирай!