PrimaNota.ru - самый крупный в мире бесплатный архив песенных текстов, аккордов, табулатур и нот


Future Of The Left - Adeadenemyalwayssmellsgood - бас-таба, видео

Регистрация Запомнить меня
Войти через:  Facebook Google Twitter Vk Yandex Mail.ru

Future Of The Left - Adeadenemyalwayssmellsgood - бас-таба, видео

Печатать
Просмотров: 102
Artist : Future Of The Left
Song   : Adeadenemyalwayssmellsgood
Album  : Curses
Tabbed By Rob Price
Stereopricey@hotmail.com

Fantastic Song, Fantastic Welsh Band. 
Play with distortion to make it more Beefy. Structure included at Bottom, but its dead 
to figure out with the CD.

Riff 1
G----------------------------------------------------|
D----------------------------------------------------|
A----------------------------------------------------|
E-7--7577--7577--7-10\7---7577--7577--7-10-13--(12)/--|

Riff 2
G----------------|
D----------------|
A----------------|
E-7-10-13-(12)/---|

Riff 3
G--------------------------------------------------------------------|
D--------------------------------------------------------------------|
A---------------------------------------5---5---5---5----------------|
E-7--7577--7577--7-10\7---7577--7577--7---7---7---7---7-10-13--(12)/-|

Riff 4
G---------------------------|
D---------------------------|
A---------------------------|
E-7-10-13-\7--10-13--1313---|

End Riff
G----------|
D----------|
A----------|
E-7-10/7---|


Vocal Intro (Roll On...)
Riff 1 x 4
Riff 2 x 7
Riff 3 x 1
Riff 1 x 2
Riff 2 x 31
Riff 4 x 8 (Include End Riff)
Добавлено: 21.06.2012
Другие материалы по этой песне:
  • Аккорды и текст

Страница создана 21.06.2012
http://primanota.ru/future-of-the-left/adeadenemyalwayssmellsgood-chords.htm
Привет, Гость.
Предлагаем пройти революционный курс по гитаре.
Подарок от PrimaNota.Ru, забирай!