PrimaNota.ru - самый крупный в мире бесплатный архив песенных текстов, аккордов, табулатур и нот


Future Of Forestry - Set Your Sails - аккорды и текст, видео

Регистрация Запомнить меня
Войти через:  Facebook Google Twitter Vk Yandex Mail.ru

Future Of Forestry - Set Your Sails - аккорды и текст, видео

Печатать
Просмотров: 92
Set Your Sails
Future Of Forestry
-----------------------------------------------------------------
Artist: Future Of Forestry
Album: Travel II
Year: 2009
Song: Set Your Sails
Key: G
-----------------------------------------------------------------

-----------------------------------------------------------------
For those few that are playing piano, the notes go like this:

 Play     B  B  F# G  G  G  G  G
all at:   D  D  A  B  B  B  B  B
 once     B  B  F# G  G  G  G  G

On guitar (most of us)
Make a "G" chord, but only with your Index and Middle fingers, slide up to the 9th fret,
and then slide up one more to the 10th fret, moving your Picky finger down just one more
to the 12th fret. Once you get that, add your ring finger as if you were playing in the
key of E and keep it always two down from your index. 

The pattern goes like this, strum 2x 1x 5x, and you'll get the hang of it.

      Better     be      gooooone,       it's  half  past  eleven  now
e|---x----x----x----x----x----x----x----x----x----x----x----x----x----x----x-|
B|---12---12---12---12---3----3----10---12---12---12---12---12---12---12---12|
G|---12---12---12---12---4----4----11---12---12---12---12---12---12---12---12|
D|---x----x----x----x----x----x----x----x----x----x----x----x----x----x----x-|
A|---10---10---10---10---2----2----9----10---10---10---10---10---10---10---10|
E|---x----x----x----x----x----x----x----x----x----x----x----x----x----x----x-|


               Get   on   the   deck,   yeah,      you    better    get    on

e|---x----x----x----x----x----x----x----x----x----x----x----x----x----x----x-|
B|---3----3----10---12---12---12---12---12---12---12---12---12---12---12---3-|
G|---4----4----11---12---12---12---12---12---12---12---12---12---12---12---4-|
D|---x----x----x----x----x----x----x----x----x----x----x----x----x----x----x-|
A|---2----2----9----10---10---10---10---10---10---10---10---10---10---10---2-|
E|---x----x----x----x----x----x----x----x----x----x----x----x----x----x----x-|

You repeat this the whole way through until you get to
"Nothing but moving will do" At do, just play the chord
and at the * go back the the pattern above.

-----------------------------------------------------------------

-----------------------------------------------------------------

Verse 1


     Better be gone

     It's half past eleven now

     Get on the deck, yeah

     You better get on

     It's half past eleven now

     Fairly well, we can tell
                             Em
     Nothing but moving will do
                        *
     And it will be alright

Chorus


     Hey, hey, hey, the night is waiting for you

     Take a picture of the silver moon

     Oh, oh, oh, she will be shining for you

     On your journey home

Verse 2


     And better be gone

     So find your pocket watch

     And all of your hope now

     The hour is long

     Before I try to say too much

     Fair thee well 'cause we can tell
                              Em
     Nothing but courage will do
                        *
     And it will be alright

Pre-Chorus


     Hey, hey, hey, the night is waiting for you

     Take a picture of the silver moon

     Oh, oh, oh, she will be shining for you

     On your journey home

Chorus

     Em         C                   D        G
     Set your sails upon the mighty winds of May
     Em         C            G       D
     Set your sails upon the hope of June
     Em         C                   D    G
     Set your sails upon the air of warm July
     Em         C                 G        D             *
     Set your course for Heaven's shore

Pre-chorus


     Hey, hey, hey, the night is waiting for you

     Take a picture of the silver moon

     Oh, oh, oh, she will be shining for you

     On your journey home

Chorus

     Em         C                   D        G
     Set your sails upon the mighty winds of May
     Em         C            G       D
     Set your sails upon the hope of June
     Em         C                   D    G
     Set your sails upon the air of warm July
     Em         C                 G        D             *
     Set your course for Heaven's shore


[Instrumental]


Please, all you crazy awesome tab people, help make this song better by adding to it!
Rate and comment if you liked it!
Добавлено: 20.11.2015
Вам также может быть интересно:
Другие материалы по этой песне:
  • Аккорды и текст

Страница создана 20.11.2015
http://primanota.ru/future-of-forestry/set-your-sails-chords.htm
Привет, Гость.
Предлагаем пройти революционный курс по гитаре.
Подарок от PrimaNota.Ru, забирай!