PrimaNota.ru - самый крупный в мире бесплатный архив песенных текстов, аккордов, табулатур и нот


Future Leaders Of The World - Let Me Out - текст песни, таба, бас-таба, видео

Регистрация Запомнить меня
Войти через:  Facebook Google Twitter Vk Yandex Mail.ru

Future Leaders Of The World - Let Me Out - текст песни, таба, бас-таба, видео

Печатать
Просмотров: 243
Author/Artist: Future Leaders of the World
Title: Let Me Out
Album: Level IV
Transcribed by: Chris Hallam
Email: chris3764@hotmail.com

This tab goes out to my band consisting of Brandon, Peaches, Ross and I.

Tuning is dropped D down a half step (Low to highest: Db ab db gb bb eb)

INTRO / 1ST VERSE

------------------------------------------------------------------------------|
------------------------------------------------------------------------------|
------0---------3-----------------------------0-------------------------------|
--------4---------4---5---5-5-5----0--------4---4-----------------------------|
---2---------4--------5---5-5-5----0----5---------5-0-------------------------|
-4---------4----------5---5-5-5----0------------------------------------------|

CHORUS

------------------------------------------------------------------------------|
------------------------------------------------------------------------------|
-4--4—-4-4--------------------------------------------------------------------|
-4--4--4-4--4-5---0---0-0--0-0-----5-5-5-5-4-4-4------------------------------|
-2--2--2-2--4-5---0---0-0--0-0-----5-5-5-5-4-4-4------------------------------|
------------4-5---0---0-0--0-0-----5-5-5-5-4-4-4------------------------------|

The second verse is basically the chorus with a little picking.  Listen to the song to 
it up.

BRIDGE

------------------------------------------------------------------------------|
------------------------------------------------------------------------------|
-4-4-x-x-x-x-x-x--------------------------------------------------------------|
-4-4-x-x-x-x-x-x-4-4-x-x-5-5-x-x-0-0-x-x-x-x-x-x-5-5-x-x-4-4-x-x--------------|
-2-2-x-x-x-x-x-x-4-4-x-x-5-5-x-x-0-0-x-x-x-x-x-x-5-5-x-x-4-4-x-x--------------|
-----------------4-4-x-x-5-5-x-x-0-0-x-x-x-x-x-x-5-5-x-x-4-4-x-x--------------|

There's the basics of the song.  Just listen to it to fill in the details.
Добавлено: 10.07.2012
Другие материалы по этой песне:

Страница создана 10.03.2012
http://primanota.ru/future-leaders-of-the-world/let-me-out-chords.htm
Привет, Гость.
Предлагаем пройти революционный курс по гитаре.
Подарок от PrimaNota.Ru, забирай!