PrimaNota.ru - самый крупный в мире бесплатный архив песенных текстов, аккордов, табулатур и нот


Future Idiots - Tomorrow - таба, видео

Регистрация Запомнить меня
Войти через:  Facebook Google Twitter Vk Yandex Mail.ru

Future Idiots - Tomorrow - таба, видео

Печатать
Просмотров: 129
-------------------------------------------------------------------------------
                             Tomorrow - Future Idiots
-------------------------------------------------------------------------------
Tabbed by: DruggaWugga
E-mail: joe10joe10@hotmail.com

This is my first tab but I'm, 99% sure this is correct.

Tuning: Standard (EADGBe)

  (Lead Guitar)   INTRO (2X)
e|---------------------------------------------------------------------------|
B|---------------------------------------------------------------------------|
G|----------------------------------------4-4-4-4-2-2-2-2--------------------|
D|------------2--4--4--2--4----------2---------------------4-4-4-2-4-2-------|
A|---2--2--5----------------2--2--5----2-------------------------------5-2---|
E|---------------------------------------------------------------------------|
 |(Rhythm Guitar)                                                          
e|-------------------------------------------------------------------------|
B|-------------------------------------------------------------------------|
G|-------------------------------------------------------------------------|   
D|---4-44444444444444-7-77777777777777------------------*-******-----------|Palm mute the ones marked with '*'
A|---2-22222222222222-5-55555555555555-5-55555555555555-2-222222-22-22--22-| second time through    
E|-------------------------------------3-33333333333333-0-000000-00-00--00-|
PM:                                                              .. ..  ..
 
 
  (Both Guitars) Verse (2x)
e|-------------------------------------------------------------|
B|-------------------------------------------------------------|
G|---------------------------2~---------------------------2~---|
D|---44---44-----------------2~---44---44-----------------2~---|
A|---22---22-55---55-22---22-0~---22---22-55---55-22---22-0~---|
E|-----------33---33-00---00--------------33---33-00---00------|
 
 
  (Both Guitars) Pre-Chorus (1X) 
e|-----------------------------------------------|
B|-----------------------------------------------|
G|-----------------------------------------------|
D|-----------------------------------------------|
A|---X-X-5-55555555555555-7-777777XXXXXXXX-------|
E|---X-X-3-33333333333333-5-555555XXXXXXXX-------|
 PM:       ..............   ......


  (Both Guitars) Chorus (2X)
e|---------------------------------------------------------------------------|
B|---------------------------------------------------------------------------|
G|---------------------------------------------------------------------------|   
D|----4-44444444444444-7-77777777777777--------------------------------------|
A|----2-22222222222222-5-55555555555555-5-55555555555555-7-77777777777777----|
E|--------------------------------------3-33333333333333-5-55555555555555----|


  (Lead Guitar)   INTRO (2X)
e|---------------------------------------------------------------------------|
B|---------------------------------------------------------------------------|
G|----------------------------------------4-4-4-4-2-2-2-2--------------------|
D|------------2--4--4--2--4----------2---------------------4-4-4-2-4-2-------|
A|---2--2--5----------------2--2--5----2-------------------------------5-2---|
E|---------------------------------------------------------------------------|
 |(Rhythm Guitar)                                                          
e|-------------------------------------------------------------------------|
B|-------------------------------------------------------------------------|
G|-------------------------------------------------------------------------|   
D|---4-44444444444444-7-77777777777777------------------*-******-----------|Palm mute the ones marked with '*'
A|---2-22222222222222-5-55555555555555-5-55555555555555-2-222222-22-22--22-| second time through    
E|-------------------------------------3-33333333333333-0-000000-00-00--00-|
PM:                                                              .. ..  ..


  (Both Guitars) Verse (2x)
e|-------------------------------------------------------------|
B|-------------------------------------------------------------|
G|---------------------------2~---------------------------2~---|
D|---44---44-----------------2~---44---44-----------------2~---|
A|---22---22-55---55-22---22-0~---22---22-55---55-22---22-0~---|
E|-----------33---33-00---00--------------33---33-00---00------|
 
 
  (Both Guitars) Pre-Chorus (1X) 
e|-----------------------------------------------|
B|-----------------------------------------------|
G|-----------------------------------------------|
D|-----------------------------------------------|
A|---X-X-5-55555555555555-7-777777XXXXXXXX-------|
E|---X-X-3-33333333333333-5-555555XXXXXXXX-------|
 PM:       ..............   ......


  (Both Guitars) Chorus (2X)
e|---------------------------------------------------------------------------|
B|---------------------------------------------------------------------------|
G|---------------------------------------------------------------------------|   
D|----4-44444444444444-7-77777777777777--------------------------------------|
A|----2-22222222222222-5-55555555555555-5-55555555555555-7-77777777777777----|
E|--------------------------------------3-33333333333333-5-55555555555555----|



  (Lead Guitar) Solo 
e|-------------------------------------------------------------------------------------------------------|
B|------------------------------------------------7---------7--7h8p7----------7--7/8-8/10-10/12-12-12-12-|
G|---------------------------7-7/9------------7-9-------7-9----------9----7-9----------------------------|
D|------------------7-7/9-11-------11~-----11--------11----------------11--------------------------------|
A|--------------7-9--------------------------------------------------------------------------------------|
E|-7--7-9--9-10------------------------------------------------------------------------------------------|

  (Lead Guitar) Solo cont.
e|---------------------------------------------------------------------------|
B|----10-10-10-10-8-8-8-8-7-7-7-7--------------------------------------------|
G|--------------------------------9-9-9-9-7-7-7-7----------------------------|
D|------------------------------------------------11-11-11-11-7-7-7-7-9~-----|
A|---------------------------------------------------------------------------|
E|---------------------------------------------------------------------------|

 (Rhythm Guitar) During Solo (2X)
e|---------------------------------------------------------------------------|
B|---------------------------------------------------------------------------|
G|---------------------------------------------------------------------------|   
D|----4-44444444444444-7-77777777777777--------------------------------------|
A|----2-22222222222222-5-55555555555555-5-55555555555555-7-77777777777777-4~-|
E|--------------------------------------3-33333333333333-5-55555555555555-2~-|



  (Both Guitars) Chorus (2X)
e|---------------------------------------------------------------------------|
B|---------------------------------------------------------------------------|
G|---------------------------------------------------------------------------|   
D|----4-44444444444444-7-77777777777777--------------------------------------|
A|----2-22222222222222-5-55555555555555-5-55555555555555-7-77777777777777----|
E|--------------------------------------3-33333333333333-5-55555555555555----|


  (Lead Guitar)   OUTRO (2X)
e|---------------------------------------------------------------------------|
B|---------------------------------------------------------------------------|
G|----------------------------------------4-4-4-4-2-2-2-2--------------------|
D|------------2--4--4--2--4----------2---------------------4-4-4-2-4-2-------|
A|---2--2--5----------------2--2--5----2-------------------------------5-2---|
E|---------------------------------------------------------------------------|
 |(Rhythm Guitar)                                                          
e|---------------------------------------------------------------------------|
B|---------------------------------------------------------------------------|
G|---------------------------------------------------------------------------|   
D|---4-44444444444444-7-77777777777777---------------------------------------|
A|---2-22222222222222-5-55555555555555-5-55555555555555-7-77777777777777-----|  
E|-------------------------------------3-33333333333333-5-55555555555555-----| 
        
  (Both Guitars)
     End On                                                     
e|-------------|
B|-------------|
G|-------------|
D|-----4-4-----|
A|-----2-2-----|
E|-------------|
  
************************************

| /   slide up
| \   slide down
| h   hammer-on
| p   pull-off
| ~   let note ring
| X   mute
************************************
Добавлено: 18.10.2015
Другие материалы по этой песне:
  • Аккорды и текст

Страница создана 18.10.2015
http://primanota.ru/future-idiots/tomorrow-chords.htm
Привет, Гость.
Предлагаем пройти революционный курс по гитаре.
Подарок от PrimaNota.Ru, забирай!