PrimaNota.ru - самый крупный в мире бесплатный архив песенных текстов, аккордов, табулатур и нот


Future Idiots - I Still Got Porn - таба, видео

Регистрация Запомнить меня
Войти через:  Facebook Google Twitter Vk Yandex Mail.ru

Future Idiots - I Still Got Porn - таба, видео

Печатать
Просмотров: 130
* Future Idiots - I Still Got Porn

   * Tabbed by lucas94380

   * my channel youtube: lucas94380

   * my cover: http://www.youtube.com/watch?v=Nckn-zgbNeo&feature=plcp



Intro: x4


e---------------------------------------------------------|
B--8-----------8-----------6-----------5------------------|
G-----5-4-5-------5-4-5-------5-4-5-------5-7-5-----------|
D---------------------------------------------------------|
A---------------------------------------------------------|
E---------------------------------------------------------|


Verse 1: x1

e---------------------------------------------------------|
B---------------------------------------------------------|
G--5-5-5-5-5-5-5-5-5------9-7-5-7-------------------------|
D---------------------------------------------------------|
A--3-3-3-3-3-3-3-3-3------7-5-3-5-------------------------|
E---------------------------------------------------------|




Verse 2: x1

e--------------------------------------------------------------------|
B--------------------------------------------------------------------|
G--5-5-5-5-5----------------7-7-7-7-7---10-10-10-10--10------12------|
D--5-5-5-5-5----3-3-3-3-3---7-7-7-7-7---10-10-10-10--10------12------|
A--3-3-3-3-3----3-3-3-3-3---5-5-5-5-5----8--8--8--8--8-------10------|
E---------------1-1-1-1-1--------------------------------------------|




Intro: x2


e---------------------------------------------------------|
B--8-----------8-----------6-----------5------------------|
G-----5-4-5-------5-4-5-------5-4-5-------5-7-5-----------|
D---------------------------------------------------------|
A---------------------------------------------------------|
E---------------------------------------------------------|




Verse 3: x1

e----------------------------------------------------------|
B----------------------------------------------------------|
G---5-5-5-5-5-----------------7-7-7-7-7--------------------|
D---5-5-5-5-5----3-3-3-3-3----7-7-7-7-7---5-5-5-5-5--------|
A---3-3-3-3-3----3-3-3-3-3----5-5-5-5-5---5-5-5-5-5--------|
E----------------1-1-1-1-1----------------3-3-3-3-3--------|



Chorus: x1

e---------------------------------------------------------------------------------|
B---------------------------------------------------------------------------------|
G--5---5---5---5---5---5----------------2-2-2-2-2---------------------------------|
D--5---5---5---5---5---5----5-5-5-5-5---0-0-0-0-0---3-3-3-3-3---5-5-5-5-5---------|
A--3---3---3---3---3---3----5-5-5-5-5---0-0-0-0-0---3-3-3-3-3---5-5-5-5-5---------|
E---------------------------3-3-3-3-3---------------1-1-1-1-1---3-3-3-3-3---------|


e---------------------------------------------------------------------------------|
B---------------------------------------------------------------------------------|
G--5---5---5---5---5---5----------------7-7-7-7-7---10---12-----------------------|
D--5---5---5---5---5---5----5-5-5-5-5---7-7-7-7-7---------------------------------|
A--3---3---3---3---3---3----5-5-5-5-5---5-5-5-5-5----8---10-----------------------|
E---------------------------3-3-3-3-3---------------------------------------------|



Intro: x2

e---------------------------------------------------------|
B--8-----------8-----------6-----------5------------------|
G-----5-4-5-------5-4-5-------5-4-5-------5-7-5-----------|
D---------------------------------------------------------|
A---------------------------------------------------------|
E---------------------------------------------------------|



Verse 4: x1

e----------------------------------------------------------|
B----------------------------------------------------------|
G---5-5-5-5-5-----------------7-7-7-7-7---12-12-12-12-12---|
D---5-5-5-5-5----3-3-3-3-3----7-7-7-7-7--------------------|
A---3-3-3-3-3----3-3-3-3-3----5-5-5-5-5---10-10-10-10-10---|
E----------------1-1-1-1-1---------------------------------|


Chorus: x1

e---------------------------------------------------------------------------------|
B---------------------------------------------------------------------------------|
G--5---5---5---5---5---5----------------2-2-2-2-2---------------------------------|
D--5---5---5---5---5---5----5-5-5-5-5---0-0-0-0-0---3-3-3-3-3---5-5-5-5-5---------|
A--3---3---3---3---3---3----5-5-5-5-5---0-0-0-0-0---3-3-3-3-3---5-5-5-5-5---------|
E---------------------------3-3-3-3-3---------------1-1-1-1-1---3-3-3-3-3---------|


e---------------------------------------------------------------------------------|
B---------------------------------------------------------------------------------|
G--5---5---5---5---5---5----------------7-7-7-7-7---10---12-----------------------|
D--5---5---5---5---5---5----5-5-5-5-5---7-7-7-7-7---------------------------------|
A--3---3---3---3---3---3----5-5-5-5-5---5-5-5-5-5----8---10-----------------------|
E---------------------------3-3-3-3-3---------------------------------------------|

***********************************************************************************



I don't know



***********************************************************************************



Chorus: x1

e---------------------------------------------------------------------------------|
B---------------------------------------------------------------------------------|
G--5---5---5---5---5---5----------------2-2-2-2-2---------------------------------|
D--5---5---5---5---5---5----5-5-5-5-5---0-0-0-0-0---3-3-3-3-3---5-5-5-5-5---------|
A--3---3---3---3---3---3----5-5-5-5-5---0-0-0-0-0---3-3-3-3-3---5-5-5-5-5---------|
E---------------------------3-3-3-3-3---------------1-1-1-1-1---3-3-3-3-3---------|




e---------------------------------------------------------------------------------|
B---------------------------------------------------------------------------------|
G--5---5---5---5---5---5----------------7~----10~----12~--------------------------|
D--5---5---5---5---5---5----5-5-5-5-5---7~----------------------------------------|
A--3---3---3---3---3---3----5-5-5-5-5---5~----8~-----10~--------------------------|
E---------------------------3-3-3-3-3---------------------------------------------|



Intro: x1

e---------------------------------------------------------|
B--8-----------8-----------6-----------5------------------|
G-----5-4-5-------5-4-5-------5-4-5-------5-7-5-----------|
D---------------------------------------------------------|
A---------------------------------------------------------|
E---------------------------------------------------------|
Добавлено: 14.06.2013
Другие материалы по этой песне:
  • Аккорды и текст

Страница создана 14.06.2013
http://primanota.ru/future-idiots/i-still-got-porn-chords.htm
Привет, Гость.
Предлагаем пройти революционный курс по гитаре.
Подарок от PrimaNota.Ru, забирай!