PrimaNota.ru - самый крупный в мире бесплатный архив песенных текстов, аккордов, табулатур и нот


Future Idiots - Hangout With Grannies - таба, видео

Регистрация Запомнить меня
Войти через:  Facebook Google Twitter Vk Yandex Mail.ru

Future Idiots - Hangout With Grannies - таба, видео

Печатать
Просмотров: 96
Future Idiots - Hangout With Grannies

Tabbed by: Aaron!

Intro:

Guitar 1:

e-----------------------------------------|
B-----------------------------------------|
G-----------------------------------------|
D-------777-555--444-222-----444----------|    X4
A---555------------------222--------------|
E--------------------------------33333333-|

Guitar 2:

e-----------------------------------------|
B-----------------------------------------|
G---7~-------------------4~---------------|
D---7~-------------------4~-----5~--------|    X4
A---5~-------------------2~-----5~--------|
E-------------------------------3~--------|

*The second time use palm mute and built up the sound at the first chord. the second 
just strum and the third also just strum.
*third and forth strum the chords.

Both guitars

Verse:

e-------                    -----------------------------------------------|
B-------                    -----------------------------------------------|
G---7~--                    -----------------------------------------------|
D---7~-- (two bars nothing) ---77777777-----------------------------7*-----|  X2
A---5~--                    ---55555555-77777777-55555555-77777777--7------|
E-------                    ------------55555555-33333333-55555555--5------|
                          PM......................................

*play this chord hard the second time.

Both guitars:

Chorus:

e------------------------------------|
B------------------------------------|
G---77777777777777-------------------|
D---77777777777777-55555555-77777777-|    X4
A---55555555555555-55555555-77777777-|
E------------------33333333-55555555-|


Intro:

Guitar 1:

e-----------------------------------------|
B-----------------------------------------|
G-----------------------------------------|
D-------777-555--444-222-----444----------|    X2
A---555------------------222--------------|
E--------------------------------33333333-|

Guitar 2:

e-----------------------------------------|
B-----------------------------------------|
G---777777777777-44444444-----------------|
D---777777777777-44444444-55555555--------|    X2
A---555555555555-22222222-55555555--------|
E-------------------------33333333--------|

Verse:

e-------                    -----------------------------------------------|
B-------                    -----------------------------------------------|
G---7~--                    -----------------------------------------------|
D---7~-- (two bars nothing) ---77777777-----------------------------7*-----|  X2
A---5~--                    ---55555555-77777777-55555555-77777777--7------|
E-------                    ------------55555555-33333333-55555555--5------|
                          PM......................................



Both guitars:

Chorus:

e------------------------------------|
B------------------------------------|
G---77777777777777-------------------|
D---77777777777777-55555555-77777777-|    X4
A---55555555555555-55555555-77777777-|
E------------------33333333-55555555-|

Bridge:

Guitar 1:

e----------I----------------------------------------|
B----------I----------------------------------------|
G---7~-77--I0-----------77777777--------------------|
D---7~-77--I0--55555555-77777777-77777777-----------|
A---5~-55--I---55555555-55555555-77777777-99999999--|
E----------I---33333333----------55555555-77777777--|
                                        PM........

e----------------------------------------|I
B----------------------------------------|I
G------------77777777--------------0-----|I
D---55555555-77777777-777777777777-0I----|   X2
A---55555555-55555555-555555555555-------|I
E---33333333----------555555555555-------|I

Guitar 2: does something different but it's really hrad to hear and i'm f*cking lazy.

(No you won't...)

Guitar 1:

e--------------|
B--------------|
G--------------|
D---55555555-7-|
A---55555555-7-|
E---33333333-5-|

intro:

Guitar 1:

e-----------------------------------------|
B-----------------------------------------|
G-----------------------------------------|
D-------777-555--444-222-----444----------|    X2
A---555------------------222--------------|
E--------------------------------33333333-|

Guitar 2:

e-----------------------------------------|
B-----------------------------------------|
G---7~-------------------4~---------------|
D---7~-------------------4~-----5~--------|    X2
A---5~-------------------2~-----5~--------|
E-------------------------------3~--------|

*just listen to the rythem, you're not retarded.

Chorus:

e------------------------------------|
B------------------------------------|
G---77777777777777-------------------|
D---77777777777777-55555555-77777777-|    X4
A---55555555555555-55555555-77777777-|
E------------------33333333-55555555-|

*they're playing this but a second guitar on the background is playing something 
different, i don't think it's the intro part. Just figure it out. i'm trying to, as soon as i 
have it i'll change it.

e---------------------------------------------|
B---------------------------------------------|
G---------------------------------------------|
D-------777-555--444-222-----444--------------|    X1
A---555------------------222------------------|
E--------------------------------33333333-----|
Добавлено: 09.11.2013
Другие материалы по этой песне:
  • Аккорды и текст

Страница создана 09.11.2013
http://primanota.ru/future-idiots/hangout-with-grannies-chords.htm
Привет, Гость.
Предлагаем пройти революционный курс по гитаре.
Подарок от PrimaNota.Ru, забирай!