PrimaNota.ru - самый крупный в мире бесплатный архив песенных текстов, аккордов, табулатур и нот


Fury Of Five - Takin Respect - текст песни, таба, видео

Регистрация Запомнить меня
Войти через:  Facebook Google Twitter Vk Yandex Mail.ru

Fury Of Five - Takin Respect - текст песни, таба, видео

Печатать
Просмотров: 127
Уроки эстрадного вокала в Санкт-Петербурге
-------------------------------------------------------------------------------
                             TAKIN' RESPECT - Fury of Five
-------------------------------------------------------------------------------
Tabbed by: Chris Nadell
Email: ceXhc@msn.com

http://www.myspace.com/furyoffive
http://www.victoryrecords.com/


Tuning: Dropped-D (DADGBe)

  Intro
e|----------|----------|------------|------------|-------10--------10------|
B|----------|----------|------------|------------|-------13b15-----13b15---|
G|----------|----------|------------|------------|-------------------------|
D|------/12\|\0--------|-(0)--------|-(0)--------|-(0)---------------------|
A|------/12\|\0--------|-(0)--------|-(0)--------|-(0)---------------------|
D|------/12\|\0--------|-(0)--------|-(0)--------|-(0)---------------------|

  Verse
e|---------|---------|---------|---------|
B|---------|---------|---------|---------|
G|---------|---------|---------|---------|
D|-R-E-S-T-|-R-E-S-T-|-R-E-S-T-|-R-E-S-T-| x2
A|---------|---------|---------|---------|
D|---------|---------|---------|---------|

e|---------------------|---------------------|---------------------|---------------------|
B|---------------------|---------------------|---------------------|---------------------|
G|---------------------|---------------------|---------------------|---------------------|
D|-1-0-0-0-0-1-0-4-0-3-|-1-0-0-0-0-1-0-4-0-3-|-1-0-0-0-0-1-0-4-0-3-|-1-0-0-0-0-1-0-4-0-3-| x2
A|-1-0-0-0-0-1-0-4-0-3-|-1-0-0-0-0-1-0-4-0-3-|-1-0-0-0-0-1-0-4-0-3-|-1-0-0-0-0-1-0-4-0-3-|
D|-1-0-0-0-0-1-0-4-0-3-|-1-0-0-0-0-1-0-4-0-3-|-1-0-0-0-0-1-0-4-0-3-|-1-0-0-0-0-1-0-4-0-3-|

  Chorus
e|---------------|---------------|---------|---------|
B|---------------|---------------|---------|---------|
G|---------------|---------------|---------|---------|
D|-4-3-1-0--12\--|-4-3-1-0--12\--|-R-E-S-T-|-R-E-S-T-| x3
A|-4-3-1-0--12\--|-4-3-1-0--12\--|---------|---------|
D|-4-3-1-0--12\--|-4-3-1-0--12\--|---------|---------|

  Bridge
e|----------------------------------------|----------------------------------------|
B|----------------------------------------|----------------------------------------|
G|----------------------------------------|----------------------------------------|
D|-12-------12-----------12---(12)\-------|-12-------12-----------12---(12)\-------|
A|-12-------12-----------12---(12)\-------|-12-------12-----------12---(12)\-------|
D|-12-------12-----------12---(12)\-------|-12-------12-----------12---(12)\-------|\
 |                                        |                                        | x4
e|----------------------------------------|----------------------------------------|/
B|----------------------------------------|----------------------------------------|
G|----------------------------------------|----------------------------------------|
D|----------------------------------------|----------------------------------------|
A|--0-0-0-0--0-0-0-0-0-0--0-0---0---0-0-0-|--0-0-0-0--0-0-0-0-0-0--0-0---0---0-0-0-|
D|--0-0-0-0--0-0-0-0-0-0--0-0---0---0-0-0-|--0-0-0-0--0-0-0-0-0-0--0-0---0---0-0-0-|
    * * * *  * * * * * *  * *   *   * * *    * * * *  * * * * * *  * *   *   * * *

  Interlude
e|-------------|-------------------|-------------|--------------------|
B|-------------|-------------------|-------------|--------------------|
G|-5---8--8--7-|-(7)---------------|-5---8--8----|--------------------|
D|-5---8--8--7-|-(7)-7-7-7-7-7-7-7-|-5---8--8--0-|-(0)----------------| x4
A|-3---6--6--5-|-(5)-5-5-5-5-5-5-5-|-3---6--6--0-|-(0)-0-0-0-0-0-0-0--|
D|-------------|-------------------|-----------0-|-(0)-0-0-0-0-0-0-0--|
                     * * * * * * *                     * * * * * * *

  Solo
e|--------------|-------------------|----------------------|--------------------|
B|--------------|-------------------|----------------------|--------------------|
G|-5--5-8--8--7-|-(7)-8-7-5-8-7-5-2-|-2h3h5-5--b7--b8--5r2-|-(2)----------------|
D|--------------|-------------------|----------------------|--------------------|
A|--------------|-------------------|----------------------|--------------------|
D|--------------|-------------------|----------------------|--------------------|

e|-11p10p8p6-8-6--8--------|-------------------|------------------------|-------------------|
B|------------------11p8p6-|--6h8p6------------|---------4-6b8--b8--6r4-|-------------------|
G|-------------------------|--------8-5--------|-----5h7----------------|--5----------------|
D|-------------------------|-------------------|-5h7--------------------|-------------------|
A|-------------------------|-------------------|------------------------|-------------------|
D|-------------------------|-------------------|------------------------|-------------------|

e|-8b10--r8b10r8--b10--|-r8--b10r8--b10r8--b10r------|--------------------|--------------------|
B|---------------------|------------------------10p8-|-8b10--r8b10r8--b10-|-r8--b10r8p6--------|
G|---------------------|-----------------------------|--------------------|-------------7--5-7-|
D|---------------------|-----------------------------|--------------------|--------------------|
A|---------------------|-----------------------------|--------------------|--------------------|
D|---------------------|-----------------------------|--------------------|--------------------|

e|-------------8----|-------------------|----------------|----------------|
B|-6---6-8-6-8---10-|--8--6---6-------6-|-8-6------------|----------------|
G|---7--------------|-------7---7-5-7---|-----7-5--------|----------------|
D|------------------|-------------------|---------7-5----|----------------|
A|------------------|-------------------|-------------5--|-(5)------(5)\--|
D|------------------|-------------------|----------------|----------------|

e|----------------|---------------------|------------------------|-----------------------8-|
B|----------------|-------------6-----6-|-5-8-8b10r8--b10r8--b10-|-r8--b10--r8--b10r8-10---|
G|---------5-7-7--|-(7)-5-7-5-7----7----|------------------------|-------------------------|
D|-----5-7--------|---------------------|------------------------|-------------------------|
A|-5-7------------|---------------------|------------------------|-------------------------|
D|----------------|---------------------|------------------------|-------------------------|

e|-------------------|--------------------|----------------------------|---------|
B|-10-8--------------|--------------------|----------------------------|---------|
G|------9-7-7-5-7b9--|-r7--b9r7--b9r7-5-7-|-7b8-7b8-7b8-7b8-7b9--r5----|---------|
D|-------------------|--------------------|-------------------------7--|-(7)-----|
A|-------------------|--------------------|----------------------------|---------|
D|-------------------|--------------------|----------------------------|---------|

  Outro
e|---------------------------------|--------------------------------------|
B|---------------------------------|--------------------------------------|
G|---------------------------------|-----------------8-8-8-8-11-11-11-11--|
D|---------------------------------|-----------------8-8-8-8-11-11-11-11--| x2
A|-0-0-0-0-0-0-0-0-0-0-0-0-0-0-0-0-|-0-0-0-0-0-0-0-0-6-6-6-6--9--9--9--9--|
D|-0-0-0-0-0-0-0-0-0-0-0-0-0-0-0-0-|-0-0-0-0-0-0-0-0----------------------|
   * * * * * * * * * * * * * * * *   * * * * * * * *

e|---------------------------------|--------------------------------------|
B|---------------------------------|--------------------------------------|
G|---------------------------------|-----------------8-8-8-8-11-11-11-11--|
D|---------------------------------|-----------------8-8-8-8-11-11-11-11--|
A|-0---0-------0-0-0-0-0-------0---|-0---0-------0-0-6-6-6-6--9--9--9--9--|
D|-0---0-------0-0-0-0-0-------0---|-0---0-------0-0----------------------|\
 | *   *       * * * * *       *   | *   *       * *                      | x4
e|---------------------------------|--------------------------------------|/
B|---------------------------------|--------------------------------------|
G|---------------------------------|-----------------8-8-8-8-11-11-11-11--|
D|-7-7-7-7-7-7-7-7-7-7-7-7-7-7-7-7-|-7-7-7-7-7-7-7-7-8-8-8-8-11-11-11-11--|
A|-5-5-5-5-5-5-5-5-5-5-5-5-5-5-5-5-|-5-5-5-5-5-5-5-5-6-6-6-6--9--9--9--9--|
D|---------------------------------|--------------------------------------|
   * * * * * * * * * * * * * * * *   * * * * * * * *

e|----------------------------|
B|----------------------------|
G|-----8--------11--7-7-7-----|
D|-8-8-8--11-11-11--7-7-7-----|
A|-6-6-6---9--9--9--5-5-5-----|
D|----------------------------|
   * *     *  *


| *  Palm mute
| /  slide up
| \  slide down
| h  hammer-on
| p  pull-off
| b  bend
| r  release
| ~  vibrato
| +  harmonic
| x  Mute note
Добавлено: 12.07.2012
Другие материалы по этой песне:

Страница создана 05.05.2012
http://primanota.ru/fury-of-five/takin-respect-chords.htm
Привет, Гость.
Предлагаем пройти революционный курс по гитаре.
Подарок от PrimaNota.Ru, забирай!