PrimaNota.ru - самый крупный в мире бесплатный архив песенных текстов, аккордов, табулатур и нот


Furuido - Nantokanare - аккорды и текст, видео

Регистрация Запомнить меня
Войти через:  Facebook Google Twitter Vk Yandex Mail.ru

Furuido - Nantokanare - аккорды и текст, видео

Печатать
Просмотров: 106
Уроки эстрадного вокала в Санкт-Петербурге
Nantokanare
Furuido
Nantokanare - fluid
何とかなれ - 古井戸 
Intro song to the Anime Akagi.

INTRO: G D Em 2x
e----------------------------------------7-5--3--0-----------
B--------------------------------------------------3---------
G-------0-2--2/4-4\2p0--------------0----------------2-2/4---
D---0h2-----------------2---0---0-2--------------------------
A-----------------------------2------------------------------
E------------------------------------------------------------
                                                 0:23
e------------------------------------------------5-7-5-3-0---
B---3--0-3-4b5--3-0------------------------------------------
G--------------------2--------0-2-0--------------------------
D-----------------------0-0-2--------------------------------
A------------------------------------------------------------
E------------------------------------------------------------
h - hammer on
/ - slide up
\ - slide down
b - bend

G   D   Em
yas-e-ga-man bakari de
G  D    Em       D
mou hantoshi sugita ga
G    Am  G
nani ga kawatta ka
     Am   G
dare o aishita ka
C     Bm  C   Bm  A             D  
atama no naka de ima yume ga kuzuredashita
Em             
nantokanare

G    D Em
yabure kabure bakari (de)
G    D    Em    D
mou hantoshi sugita ga
G    Am  G    
nani ga kawatta ka
     Am   G
dare o aishita ka
C     Bm  C   Bm  A             D            
atama no naka de ima yume ga kuzuredashita
Em            Bm
nantoka nare
Em            Bm
nantoka nare
Em            Bm
nantoka nare
Em            Bm
nantoka nare
Добавлено: 13.06.2016
Другие материалы по этой песне:
  • Аккорды и текст

Страница создана 13.06.2016
http://primanota.ru/furuido/nantokanare-chords.htm
Привет, Гость.
Предлагаем пройти революционный курс по гитаре.
Подарок от PrimaNota.Ru, забирай!