PrimaNota.ru - самый крупный в мире бесплатный архив песенных текстов, аккордов, табулатур и нот


Further Seems Forever - So Cold - таба, видео

Регистрация Запомнить меня
Войти через:  Facebook Google Twitter Vk Yandex Mail.ru

Further Seems Forever - So Cold - таба, видео

Печатать
Просмотров: 119
Уроки эстрадного вокала в Санкт-Петербурге
-----------------------------------------------------------------------------
                             So Cold - Further Seems Forever
-----------------------------------------------------------------------------

Band: Further Seems Forever
Song: So Cold
Album: Penny Black
Tabbed by: Matthew Florio, www.facebook.com/smeeplayscheap
E-mail: shempashland@yahoo.com

First single off of Further Seems Forever's first album with their original line
in over ten years!

Tuning: Half Step Down

Intro

Guitar 1
e|--0000----------------0000------------------------|
B|--5555-0000-0000-0000-555500000000----------------|
G|-------6666-4444-8888-----44442222----------------|
D|--------------------------------------------------|
A|--------------------------------------------------|
E|--------------------------------------------------|

Guitar 2
e|--0000-0000-0000-0000-------------------|
B|--0000-0000-0000-0000-------------------|
G|--6666-9999-2222-2222-------------------|
D|--6666-9999-2222-2222-------------------|
A|--4444-7777-0000-0000-------------------|
E|----------------------------------------|

*no guitar during first part of verse... second part is the intro guitars*

Pre Chorus

Guitar 1
e|------------------------------|
B|------------------------------|
G|--9-8-11-9999-----------------|
D|--x-x--x-xxxx-----------------|
A|--7-6--9-7777-----------------|
E|------------------------------|

Guitar 2
e|-------------------------------|
B|-------------------------------|
G|--6-2----4444------------------|
D|--6-2-2--4444------------------|
A|--4-0-2--2222------------------|
E|------0------------------------|

Chorus

*unsure of the lead guitar part but i believe it is octaves*
e|------------------------------------------|
B|------------------------------------------|
G|--66-22----4444---------------------------|
D|--66-22-22-4444---------------------------|
A|--44-00-22-2222---------------------------|
E|--------00--------------------------------|

riff at the end of the first chorus

Guitar 1
e|-------0-----0---0----------0----------------|
B|-----0-----0---0--0--0--0--0-----------------|
G|---9----11---9---11h13p11/9------------------|
D|---------------------------------------------|
A|---------------------------------------------|
E|---------------------------------------------|

Guitar 2
e|-------------------------------------------------------------|
B|-------------------------------------------------------------|
G|----------------------------------66-666---------------------|
D|----------------------------------66-666---------------------|
A|----------------------------------44-444---------------------|
E|-------------------------------------------------------------|

*Verse 2 same as the first*

Pre Chorus 2
*has two parts: first part is like the first Pre Chorus... then part 2...*

Part 2

Guitar 1
e|-------19-----19------19-----19--------------------------|
B|--16h17--16h17---16h17--16h17----------------------------|
G|---------------------------------------------------------|
D|---------------------------------------------------------|
A|---------------------------------------------------------|
E|---------------------------------------------------------|

Guitar 2
e|--0000000000000000------------------------|
B|--0000000000000000------------------------|
G|--2222222222222222------------------------|
D|--2222222222222222------------------------|
A|--0000000000000000------------------------|
E|------------------------------------------|

Chorus

Bridge

Guitar 1

*not sure about this but this seems to work right*
e|------0------0-------0-------------------------------------------------------|
B|----0--0---0--0----0--0-0-12h13p12-0-----------------------------------------|
G|--13-----11-----13-----11---------11-----------------------------------------|
D|-----------------------------------------------------------------------------|
A|-----------------------------------------------------------------------------|
E|-----------------------------------------------------------------------------|

Guitar 2
e|---------0-----------0----------0---------0----------------------|
B|-----------0-----------0----------0---------0--------------------|
G|------2-----------2----------4---------6-------------------------|
D|----2----------2-----------4---------6---------------------------|
A|--0----------0-----------2---------4-----------------------------|
E|-----------------------------------------------------------------|

Final Chorus
*basically the Chorus minus guitar 1 is different*

Guitar 1
*something along these lines.  play along with the track to hear timing*
e|--------------------|-------19-----19-----19--------16------------|
B|--0--0-0--0-0--0-0--|--16h17--16h17--16h17--16h17h19--19p17-------|
G|--9-1111-1313-1111--|---------------------------------------------|
D|--------------------|---------------------------------------------|
A|--------------------|---------------------------------------------|
E|--------------------|---------------------------------------------|

Outro

Guitar 1
e|--0------0--0--0-0---------------|
B|--0--0---0--0--0-0---------------|
G|--9-9-9-11h13p11/9---------------|
D|---------------------------------|
A|---------------------------------|
E|---------------------------------|

Guitar 2
*let ring out*
e|--0------------------------------|
B|--0------------------------------|
G|--2------------------------------|
D|--2------------------------------|
A|--0------------------------------|
E|---------------------------------|



************************************

| /   slide up
| \   slide down
| h   hammer-on
| p   pull-off
| ~   vibrato
| +   harmonic
| x   Mute note
| b   Bend
| pb  Pre-bend
| br  Bend release
| pbr Pre-bend release
| brb Bend release bend

************************************
Добавлено: 01.11.2013
Вам также может быть интересно:
Другие материалы по этой песне:
  • Аккорды и текст

Страница создана 01.11.2013
http://primanota.ru/further-seems-forever/so-cold-chords.htm
Привет, Гость.
Предлагаем пройти революционный курс по гитаре.
Подарок от PrimaNota.Ru, забирай!