PrimaNota.ru - самый крупный в мире бесплатный архив песенных текстов, аккордов, табулатур и нот


Further Seems Forever - Light Up Ahead - текст песни, таба, видео

Регистрация Запомнить меня
Войти через:  Facebook Google Twitter Vk Yandex Mail.ru

Further Seems Forever - Light Up Ahead - текст песни, таба, видео

Печатать
Просмотров: 179
Artist: Further Seems Forever
Song: "Light Up Ahead"
Album: Hide Nothing (08.17.2004)
Tuning: Drop D

I'm really surprised no one else got this first... Super easy and super
awesome with the right guitar effects. Sounds best on electric, still
half-decent on acoustic.

Intro/Verse

Guitar 1 - Lead Guitar

(This is the best I can make out from the intro... I picked a repeating
point (* = repeating point) for everyone to use to start the song and then
you can loop it as much as you want to)

E|-----------------------------------*-----------|
B|---3-4-4-4-4-3-4-4-4-4-4/6-6-6-6-6/3-4-4-4-4---|
G|-----------------------------------------------|
d|-----------------------------------------------|
A|-----------------------------------------------|
D|-----------------------------------------------|

Guitar Two - Power chords and fill

(There is lots of extra lead guitar being played around during the verse,
I recommend either use the Intro to replace it, or wait awhile and I'll fix
it later. Guitar two should use major, heavy distortion for effect. If you
actually use distortion, only one of each chord is nessacery. Otherwise,
feel free to fill it in with short strumming.)

"Take this heart of darkness..."
E|-------------------------------------------------|
B|-------------------------------------------------|
G|-------------------------------------------------|
d|--5-5-5-5-5-5------------------------------------|
A|--5-5-5-5-5-5------------------------------------|
D|--5-5-5-5-5-5------------------------------------|

"I give it up..."
E|-------------------------------------------------|
B|-------------------------------------------------|
G|-------------------------------------------------|
d|--1-1-1-1-1-1-0-0-0-0-0-0------------------------|
A|--1-1-1-1-1-1-0-0-0-0-0-0------------------------|
D|--1-1-1-1-1-1-0-0-0-0-0-0------------------------|

(Use same powerchords for "And all the emptiness / I fill it up...")

Bridge:

"The times I feel like nothing..."
E|-------------------------------------------------|
B|-------------------------------------------------|
G|-------------------------------------------------|
d|-6-6-6-------------------------------------------|
A|-6-6-6-------------------------------------------|
D|-6-6-6-------------------------------------------| (use as needed)

"You bring enough"
E|-------------------------------------------------|
B|-------------------------------------------------|
G|-------------------------------------------------|
d|-3-3-3-1-1-1-------------------------------------|
A|-3-3-3-1-1-1-------------------------------------|
D|-3-3-3-1-1-1-------------------------------------| (use both as needed)

"So I can live for something"
E|-------------------------------------------------|
B|-------------------------------------------------|
G|-------------------------------------------------|
d|-5-5-5-3-3-3-1-1-1-------------------------------|
A|-5-5-5-3-3-3-1-1-1-------------------------------|
D|-5-5-5-3-3-3-1-1-1-------------------------------| (use as needed)

"You lift me up"
E|-------------------------------------------------|
B|-------------------------------------------------|
G|-------------------------------------------------|
d|-1-3-6-------------------------------------------|
A|-1-3-6-------------------------------------------|
D|-1-3-6-------------------------------------------| (change on "lift",
"me", and "up")

Pre-chorus:

"And all these bad dreams, I wake up to the light..."
E|-------------------------------------------------|
B|-------------------------------------------------|
G|-------------------------------------------------|
d|-6-6-6-5-5-5-1-1-1-------------------------------|
A|-6-6-6-5-5-5-1-1-1-------------------------------|
D|-6-6-6-5-5-5-1-1-1-------------------------------| (use as needed, figure
out the easy-as-anything pattern for switching)

"And when I can't see, I wake up to your eyes..."
E|-------------------------------------------------|
B|-------------------------------------------------|
G|-------------------------------------------------|
d|-6-6-6-5-5-5-1-1-1-------------------------------|
A|-6-6-6-5-5-5-1-1-1-------------------------------|
D|-6-6-6-5-5-5-1-1-1-------------------------------| (use as needed,
figure out the easy-as-anything pattern for switching)

"Wake me up!"
E|---|
B|---|
G|---|
d|-6-|
A|-6-|
D|-6-| (let ring)

Chorus:
"There's a light up ahead (wake me up)"
E|-------------------------------------------------|
B|-------------------------------------------------|
G|-------------------------------------------------|
d|-8-8-8-5-5-5-6-6-6-------------------------------|
A|-8-8-8-5-5-5-6-6-6-------------------------------|
D|-8-8-8-5-5-5-6-6-6-------------------------------| (use as needed)

(repeat for the rest of chorus)


That pretty much lays out the whole song for ya. Questions, corrections,
comments, or requests... dashboardcfan89@yahoo.com..

- matt
Добавлено: 05.05.2012
Другие материалы по этой песне:
  • Аккорды и текст

Страница создана 11.04.2012
http://primanota.ru/further-seems-forever/light-up-ahead-chords.htm
Привет, Гость.
Предлагаем пройти революционный курс по гитаре.
Подарок от PrimaNota.Ru, забирай!