PrimaNota.ru - самый крупный в мире бесплатный архив песенных текстов, аккордов, табулатур и нот


Furious George - Pumpkinhead - таба, бас-таба, видео

Регистрация Запомнить меня
Войти через:  Facebook Google Twitter Vk Yandex Mail.ru

Furious George - Pumpkinhead - таба, бас-таба, видео

Печатать
Просмотров: 79
Intro
E-----------------------------|-----------------------------|
B-----------------------------|-----------------------------|
G---------------------------2-|---------------------------2-|
D-5-5-3-3-2-2-2-2--5-5-3-3--2-|-5-5-3-3-2-2-2-2--5-5-3-3--2-|
A-3-3-1-1-0-0-0-0--3-3-1-1--0-|-3-3-1-1-0-0-0-0--3-3-1-1--0-|
E-----------------------------|-----------------------------|


Verse
E-----------------|-----------------|-----------------|-----------------|
B-----------------|-----------------|-----------------|-----------------|
G-----------------|-----------------|-----------------|-----------------|
D-5-5-3-3-2-2-2-2-|-5-5-3-3-2-2-2-2-|-5-5-3-3-2-2-2-2-|-5-5-3-3-2-2-2-2-|
A-3-3-1-1-0-0-0-0-|-3-3-1-1-0-0-0-0-|-3-3-1-1-0-0-0-0-|-3-3-1-1-0-0-0-0-|
E-----------------|-----------------|-----------------|-----------------|


PreChorus ("They say your heads too big...")
E------------------|------------------|------------------|------------------|
B------------------|------------------|------------------|------------------|
G------------------|------------------|------------------|------------------|
D------------------|------------------|------------------|------------------|
A-3-3-3-3--5-5-5-5-|-3-3-3-3--5-5-5-5-|-3-3-3-3--5-5-5-5-|-3-3-3-3--5-5-5-5-|
E-1-1-1-1--3-3-3-3-|-1-1-1-1--3-3-3-3-|-1-1-1-1--3-3-3-3-|-1-1-1-1--3-3-3-3-|


Chorus
E-------------------|-------------------|-------------------|-----------------|
B-------------------|-------------------|-------------------|-----------------|
G----------2--------|----------2--------|----------2--------|-----------------|
D-5-5-3-3--2--------|-5-5-3-3--2--------|-5-5-3-3--2--------|-5-5-3-3-2-2-2-2-|
A-3-3-1-1--0--------|-3-3-1-1--0--------|-3-3-1-1--0--------|-3-3-1-1-0-0-0-0-|
E-------------------|-------------------|-------------------|-----------------|


PreChorus 2
E-1-1-1-1--3-3-3-3-|-1-1-1-1--3-3-3-3-|-1-1-1-1--3-3-3-3-|-1-1-1-1--3-3-3-3-|
B-1-1-1-1--3-3-3-3-|-1-1-1-1--3-3-3-3-|-1-1-1-1--3-3-3-3-|-1-1-1-1--3-3-3-3-|
G------------------|------------------|------------------|------------------|
D------------------|------------------|------------------|------------------|
A------------------|------------------|------------------|------------------|
E------------------|------------------|------------------|------------------|


Verse 2                                                         x2
E-----------------------------------------------------------------|
B-----------------------------------------------------------------|
G-----------------------------------------------------------------|
D-----------------2-2-2-2-2-2-2-2-----------------2-2-2-2-2-2-2-2-|
A-3-3-3-3-5-5-5-5-0-0-0-0-0-0-0-0-3-3-3-3-5-5-5-5-0-0-0-0-0-0-0-0-|
E-1-1-1-1-3-3-3-3-----------------1-1-1-1-3-3-3-3-----------------|


Outro
E-----------------|-----------------|-----------------|-----------------|
B-----------------|-----------------|-----------------|-----------------|
G-----------------|-----------------|-----------------|---------2-------|
D-5-5-3-3-2-2-2-2-|-5-5-3-3-2-2-2-2-|-5-5-3-3-2-2-2-2-|-5-5-3-3-2-------|
A-3-3-1-1-0-0-0-0-|-3-3-1-1-0-0-0-0-|-3-3-1-1-0-0-0-0-|-3-3-1-1-0-------|
E-----------------|-----------------|-----------------|-----------------|

ORDER:
Intro
Verse
PreChorus
Chorus
PreChorus 2
Chorus
Verse 2
Chorus
Outro
Добавлено: 04.08.2015
Другие материалы по этой песне:
  • Аккорды и текст

Страница создана 04.08.2015
http://primanota.ru/furious-george/pumpkinhead-chords.htm
Привет, Гость.
Предлагаем пройти революционный курс по гитаре.
Подарок от PrimaNota.Ru, забирай!