PrimaNota.ru - самый крупный в мире бесплатный архив песенных текстов, аккордов, табулатур и нот


Fur Trade - Kids These Days - таба, видео

Регистрация Запомнить меня
Войти через:  Facebook Google Twitter Vk Yandex Mail.ru

Fur Trade - Kids These Days - таба, видео

Печатать
Просмотров: 189
http://facebook.com/furtradeband

Verse 1
        Gm                                     F
There's something bout the thing that you just said
          Gm                                 F
There's a dialogue for the dead it's in your head
Gm                            F
I would like to bully you so, flower made long ago
         Gm                      F
You were soft and easy with your flow

Chorus:
Eb  Bb  D                   Gm
Oh, oh, man kids these days I heard you say
Eb   Bb               D
Dont know how to move slow

Riff:
e|------------------------------------------------------------------------|
B|------8------10--------11--------11-------6------8--------11--------11--|
G|----8-----10--------12-------12---------7------9-------12--------12-----|
D|------------------------------------------------------------------------|
A|--6-----8--------10-------10------------------------10--------10--------|
E|--------------------------------------6------8--------------------------|

e|------------------------------------|-----------|
B|------8------10--------11-------11--|-------10--|
G|----8-----10--------12-------12-----|----10-----|
D|------------------------------------|-----------|
A|--6-----8--------10-------10--------|--8--------|
E|------------------------------------|-----------|

Verse 2:
There's a melody I hone that no one wrote
You got a way with words that makes me drop the phone
Cigarettes and the TV set, collecting dust collecting debt
I gotta make a point, remember not to forget

Chorus:
Oh, oh, man kids these days I heard you say
Dont know how to move slow
Oh, oh, man kids these days I heard you say
Dont know how to move slow
Oh, oh, man kids these days

Riff x2

Bridge: Bass just strums an F
And I know, and I know and i know and i know when it's right it's right it's right
And I know, and I know and i know and i know when it's wrong it's wrong it's wrong

And I know, and I know and i know and i know when it's right it's right it's right
And I know, and I know and i know and i know when it's wrong it's wrong it's wrong

And I know, and I know and i know and i know when it's right it's right it's right
And I know, and I know and i know and i know when it's

Chourus:
Oh, oh, man kids these days I heard you say
Dont know how to move slow
Oh, oh, man kids these days I heard you say
Dont know how to move slow
Oh, oh, man kids these days (man kids these days)

Repeat riff for the outro
Добавлено: 22.08.2013
Другие материалы по этой песне:
  • Аккорды и текст

Страница создана 22.08.2013
http://primanota.ru/fur-trade/kids-these-days-chords.htm
Привет, Гость.
Предлагаем пройти революционный курс по гитаре.
Подарок от PrimaNota.Ru, забирай!