PrimaNota.ru - самый крупный в мире бесплатный архив песенных текстов, аккордов, табулатур и нот


Funny Van Dannen - Kapitalismus - таба, видео

Регистрация Запомнить меня
Войти через:  Facebook Google Twitter Vk Yandex Mail.ru

Funny Van Dannen - Kapitalismus - таба, видео

Печатать
Просмотров: 81
-----------------------------------------------------------------------------
                             KAPITALISMUS - Funny van Dannen
-----------------------------------------------------------------------------
Tabbed by: Pawlow
E-mail: pwiderbecker@gmail.com

Tuning: EADGBe

Der Song ist sehr einfach. Die 3 Akkorde werden einfach durchgespielt, den Rhythmus
kriegt man nach mehrmaligen hören auch sehr schnell mit. Viel Spaß, ist ein schöner
Anfängersong zum selbst begleiten wenn man Barré Akkorde drauf hat. Funny spielt das
ganze auch mit Leerschlägen in den Akkordübergängen, der Wechsel ohne ist tricky 
bei der Geschwindigkeit.

The song is very easy. The 3 chords are just repeated all throughout the song. A
suitable song for someone who has just mastered barre-chords to accompany themselves while
singing. Funny plays the fills (hitting all strings) between the chords as well, if my
ears aren't fooling me, they make it much easier to change the chords with the bpm he
plays it at.


      C#m         A        B     B
e|---4-x-0------5-x-0-----7-7-x-7-7-x--0-----------------|
B|---5-x-0------5-x-0-----7-7-x-7-7-x--0-----------------|
G|---6-x-0------6-x-0-----8-8-x-8-8-x--0-----------------|
D|---6-x-0------7-x-0-----9-9-x-9-9-x--0-----------------|
A|---4-x-0------7-x-0-----9-9-x-9-9-x--0-----------------|
E|---x-x-0------5-x-0-----7-7-x-7-7-x--0-----------------|

Viel Spaß! Enjoy!
Добавлено: 18.08.2013
Другие материалы по этой песне:
  • Аккорды и текст

Страница создана 18.08.2013
http://primanota.ru/funny-van-dannen/kapitalismus-chords.htm
Привет, Гость.
Предлагаем пройти революционный курс по гитаре.
Подарок от PrimaNota.Ru, забирай!