PrimaNota.ru - самый крупный в мире бесплатный архив песенных текстов, аккордов, табулатур и нот


Funky Meters - Fire On The Bayou - бас-таба, видео

Регистрация Запомнить меня
Войти через:  Facebook Google Twitter Vk Yandex Mail.ru

Funky Meters - Fire On The Bayou - бас-таба, видео

Печатать
Просмотров: 62
funky_meters/fire_on_the_bayou.btab

Basstab by Jan Bjorklund, Finland; 
jani_bjorklund@yahoo.se 
You are welcome to request for basstabs!
Bienvenidos a pedirme transcripciones para el bajo!

TablEdited by Jan Bjorklund
Tuning : E A D G 	Time Signature: 4/4
Tempo 96

 |       |       |       |        |       |       |       |        
|--------------------------------|--------------------------------|
|--------------------------------|--------------------------------|
|5-----3-----5-------------------|5-----3-----5-------------------|
|--------------------------------|--------------------------------|

 |       |       |       |        |       |       |       |        
|--------------------------------|--------------------------------|
|--------------------------------|--------------------------------|
|5-----3-----5-------------------|5-----3-----5-------------------|
|--------------------------------|--------------------------------|

 |       |       |       |        |       |       |       |        
|--------------------------------|--------------------------------|
|--------------------------------|--------------------------------|
|5-----3-----5-------------------|5-----3-----5-------------------|
|--------------------------------|--------------------------------|

 |       |       |       |        |       |       |       |        
|--------------------------------|------------------------5-7-----|
|--------------------------------|--------------------------------|
|5-----3-----5-------------------|5-----3-----5-------------------|
|--------------------------------|--------------------------------|

 |       |       |       |        |       |       |       |        
|--------------------------------|------------------------5-7-----|
|--------------------------------|--------------------------------|
|5-----3-----5-------------------|5-----3-----5-------------------|
|--------------------------------|--------------------------------|

 |       |       |       |        |       |       |       |        
|--------------------------------|------------------------7-------|
|--------------------------------|--------------------------3-----|
|5-----3-----5-------------------|5-----3-----5-------------------|
|--------------------------------|--------------------------------|

 |       |       |       |        |       |       |       |        
|--------------------------------|--------------------------------|
|--------------------------3-----|--------------------------------|
|5-----3-----5-------5-3-5-------|5-----3-----5-------------------|
|--------------------------------|--------------------------------|

 |       |       |       |        |       |       |       |        
|--------------------------------|--------------------------------|
|--------------------------3-----|--------------------------------|
|5-----3-----5-------5-3-5-------|5-----3-----5-------------------|
|--------------------------------|--------------------------------|

 |       |       |       |        |       |       |       |        
|--------------------------------|--------------------------------|
|--------------------------3-----|--------------------------------|
|5-----3-----5-------5-3-5-------|5-----3-----5-------------------|
|--------------------------------|--------------------------------|

 |       |       |       |        |       |       |       |        
|--------------------------------|--------------------------------|
|--------------------------3-----|--------------------------------|
|5-----3-----5-------5-3-5-------|5-----3-----5-------------------|
|--------------------------------|--------------------------------|

 |       |       |       |        |       |       |       |        
|--------------------------------|------------------------5-7-----|
|--------------------------------|--------------------------------|
|5-----3-----5-------------------|5-----3-----5-------------------|
|--------------------------------|--------------------------------|

 |       |       |       |        |       |       |       |        
|--------------------------------|------------------------7-10----|
|--------------------------------|--------------------------------|
|5-----3-----5-------------------|5-----3-----5-------------------|
|--------------------------------|--------------------------------|

 |       |       |       |        |       |       |       |        
|--------------------------------|------------------------5-7-----|
|--------------------------------|--------------------------------|
|5-----3-----5-------------------|5-----3-----5-------------------|
|--------------------------------|--------------------------------|

 |       |       |       |        |       |       |       |        
|--------------------------------|------------------------7-10----|
|--------------------------------|--------------------------------|
|5-----3-----5-------------------|5-----3-----5-------------------|
|--------------------------------|--------------------------------|

 |       |       |       |        |       |       |       |        
|--------------------------------|--------------------------------|
|--------------------------------|--------------------------------|
|5-----3-----5-------------------|5-----3-----5-------------------|
|--------------------------------|--------------------------------|

 |       |       |       |        |       |       |       |        
|--------------------7-5-7-10----|--------------------------------|
|--------------------------------|--------------------------------|
|5-----3-----5-------------------|5-----3-----5-------------------|
|--------------------------------|--------------------------------|

 |       |       |       |        |       |       |       |        
|--------------------7-5-7-10----|--------------------------------|
|--------------------------------|--------------------------------|
|5-----3-----5-------------------|5-----3-----5-------------------|
|--------------------------------|--------------------------------|

 |       |       |       |        |       |       |       |        
|--------------------7-5-7-10----|------------------------7-10----|
|--------------------------------|--------------------------------|
|5-----3-----5-------------------|5-----3-----5-------------------|
|--------------------------------|--------------------------------|

 |       |       |       |        |       |       |       |        
|------------------------5-7-----|--------------------------------|
|--------------------------------|--------------------------------|
|5-----3-----5-------------------|5-----3-----5-------------------|
|--------------------------------|--------------------------------|

 |       |       |       |        |       |       |       |        
|--------------------------------|--------------------------------|
|--------------------------------|--------------------------------|
|5-----3-----5-------------------|5-----3-----5-------------------|
|--------------------------------|--------------------------------|

 |       |       |       |        |       |       |       |        
|--------------------------------|------------------------5-7-----|
|--------------------------------|--------------------------------|
|5-----3-----5-------------------|5-----3-----5-------------------|
|--------------------------------|--------------------------------|

 |       |       |       |        |       |       |       |        
|--------------------------------|------------------------7-10----|
|--------------------------------|--------------------------------|
|5-----3-----5-------------------|5-----3-----5-------------------|
|--------------------------------|--------------------------------|

 |       |       |       |        |       |       |       |        
|--------------------------------|--------------------------------|
|--------------------------------|--------------------------------|
|5-------------------------------|--------------------------------|
|--------------------------------|--------------------------------|

 |       |       |       |        |       |       |       |        
|--------------------------------|--------------------------------|
|7-----------5-------3-----------|--------------------------------|
|----------------------------3---|5-------------------------------|
|--------------------------------|--------------------------------|

 |       |       |       |        |       |       |       |        
|--------------------------------|--------------------------------|
|7-----------5-------3-----------|--------------------------------|
|----------------------------3---|5-------------------------------|
|--------------------------------|--------------------------------|

 |       |       |       |        |       |       |       |        
|--------------------------------|--------------------------------|
|7-----------5-------3-----------|--------------------------------|
|----------------------------3---|5-------------------------------|
|--------------------------------|--------------------------------|

 |       |       |       |        |       |       |       |        
|--------------------------------|--------------------------------|
|7-----------5-------3-----------|--------------------------------|
|----------------------------3---|5-------------------------------|
|--------------------------------|--------------------------------|

 |       |       |       |        |       |       |       |        
|--------------------------------|--------------------------------|
|7-----------5-------3-----------|--------------------------------|
|----------------------------3---|5-------------------------------|
|--------------------------------|--------------------------------|

 |       |       |       |        |       |       |       |        
|--------------------------------|--------------------------------|
|7-----------5-------3-----------|--------------------------------|
|----------------------------3---|5-------------------------------|
|--------------------------------|--------------------------------|

 |       |       |       |        |       |       |       |        
|--------------------------------|--------------------------------|
|--------------------------------|--------------------------------|
|5-----3-----5-------------------|5-----3-----5-------------------|
|--------------------------------|--------------------------------|

 |       |       |       |        |       |       |       |        
|--------------------------------|------------------------5-7-----|
|--------------------------------|--------------------------------|
|5-----3-----5-------------------|5-----3-----5-------------------|
|--------------------------------|--------------------------------|

 |       |       |       |        |       |       |       |        
|--------------------7-5-7-------|--------------------------------|
|--------------------------3-----|--------------------------------|
|5-----3-----5-------------------|5-----3-----5-------------------|
|--------------------------------|--------------------------------|

 |       |       |       |        |       |       |       |        
|--------------------7-5-7-10----|--------------------------------|
|--------------------------------|--------------------------------|
|5-----3-----5-------------------|5-----3-----5-------------------|
|--------------------------------|--------------------------------|

 |       |       |       |        |       |       |       |        
|--------------------7-5-7-10----|--------------------------------|
|--------------------------------|--------------------------------|
|5-----3-----5-------------------|5-----3-----5-------------------|
|--------------------------------|--------------------------------|

 |       |       |       |        |       |       |       |        
|--------------------7-5-7-10----|------------------------7-10----|
|--------------------------------|--------------------------------|
|5-----3-----5-------------------|5-----3-----5-------------------|
|--------------------------------|--------------------------------|

 |       |       |       |        |       |       |       |        
|------------------------5h6h7---|------------------------7-------|
|--------------------------------|--------------------------3-----|
|5-----3-----5-------------------|5-----3-----5-------------------|
|--------------------------------|--------------------------------|

 |       |       |       |        |       |       |       |        
|------------------------5-7-----|------------------------7-------|
|--------------------------------|--------------------------3-----|
|5-----3-----5-------------------|5-----3-----5-------------------|
|--------------------------------|--------------------------------|

 |       |       |       |        |       |       |       |        
|------------------------5-7-----|------------------------7-------|
|--------------------------------|--------------------------3-----|
|5-----3-----5-------------------|5-----3-----5-------------------|
|--------------------------------|--------------------------------|

 |       |       |       |        |       |       |       |        
|------------------------5-7-----|--------------------------------|
|--------------------------------|--------------------------3-----|
|5-----3-----5-------------------|5-----3-----5-----------5-------|
|--------------------------------|--------------------------------|

 |       |       |       |        |       |       |       |        
|--------------------------------|--------------------------------|
|--------------------------------|--------------------------------|
|5/------------------------------|--------------------------------|
|--------------------------------|--------------------------------|

 |       |       |       |        |       |       |       |        
|--------------------------------|--------------------------------|
|--------------------------------|--------------------------------|
|--------------------------------|--------------------------------|
|--------------------------------|--------------------------------|

 |       |       |       |        |       |       |       |        
|--------------------------------|--------------------------------|
|7-----------5-------3-----------|--------------------------------|
|----------------------------3---|5-------------------------------|
|--------------------------------|--------------------------------|

 |       |       |       |        |       |       |       |        
|--------------------------------|--------------------------------|
|7-----------5-------3-----------|--------------------------------|
|----------------------------3---|5-------------------------------|
|--------------------------------|--------------------------------|

 |       |       |       |        |       |       |       |        
|--------------------------------|--------------------------------|
|7-----------5-------3-----------|--------------------------------|
|----------------------------3---|5-------------------------------|
|--------------------------------|--------------------------------|

 |       |       |       |        |       |       |       |        
|--------------------------------|--------------------------------|
|7-----------5-------3-----------|--------------------------------|
|----------------------------3---|5---------------5---------------|
|--------------------------------|--------------------------------|

 |       |       |       |        |       |       |       |        
|--------------------------------|--------------------------------|
|7-----------5-------3-----------|--------------------------------|
|----------------------------3---|5-------------------------------|
|--------------------------------|--------------------------------|

 |       |       |       |        |       |       |       |        
|--------------------------------|--------------------------------|
|7-----------5-------3-----------|--------------------------------|
|----------------------------3---|5---------------5---------------|
|--------------------------------|--------------------------------|

 |       |       |       |        |       |       |       |        
|--------------------------------|------------3/--7---------------|
|7-----------5-------3-----------|--------------------------------|
|----------------------------3---|5-------------------------------|
|--------------------------------|--------------------------------|

 |       |       |       |        |       |       |       |        
|--------------------------------|--------------------------------|
|7-----------5-------3-----------|--------------------------------|
|----------------------------3---|5-------------------------------|
|--------------------------------|--------------------------------|

 |       |       |       |        
|--------------------------------|
|7-----------5-------3-----------|
|----------------------------3---|
|--------------------------------|


Transcribe! 5.2 transcription http://www.seventhstring.demon.co.uk/
Created with TablEdit http://www.tabledit.com/

     
Добавлено: 29.08.2013
Другие материалы по этой песне:
  • Аккорды и текст

Страница создана 29.08.2013
http://primanota.ru/funky-meters/fire-on-the-bayou-chords.htm
Привет, Гость.
Предлагаем пройти революционный курс по гитаре.
Подарок от PrimaNota.Ru, забирай!