PrimaNota.ru - самый крупный в мире бесплатный архив песенных текстов, аккордов, табулатур и нот


Funkadelic - Can You Get To That - текст песни, таба, видео

Регистрация Запомнить меня
Войти через:  Facebook Google Twitter Vk Yandex Mail.ru

Funkadelic - Can You Get To That - текст песни, таба, видео

Печатать
Просмотров: 201
Авторы: Ernie Harris, George Clinton

-------------------------------------------------------------------------------
                   Can you get to that - Funkadelic
-------------------------------------------------------------------------------
Tabbed by: Omri Cohen
Email: i.m.bleach@gmail.com

Tuning: standard

In the original version is everything tuned a half step back

I just tabbed my version which is just like the original with some riff placed in
It's a great song to maneuver on…

Intro:
e|----0---0----0----0----0--0---0--0--0--0---0--0--0--0--3--0--0---0--0--2---|
B|-4h5-—4h5—-4h5—-4h5—4h54h5---3--3--3--3—2h32h3--2--2--2--2--2-2-1--1--1----|
G|---------------------------------------------------------------------------|
D|---------------------------------------------------------------------------|
A|---------------------------------------------------------------------------|
E|---------------------------------------------------------------------------|

Verse:
    E                           A
    1     2     3     4         1      2      3    4   
e|--0-----0-0-0-0-0-0--------|--0--0-0-0-0---x-x--3--3-3-3--|
B|--0-----0-0-0-0-0-0-----7~-|--2--2-2-2-2---3-2--2--2-2-2--|
G|--1-1-1-1-1-1-1-1-1-----7~-|--2--2-2-2-2---2-2--2--2-2-2--|
D|--2-2-2-2-----2-2-2—7h9-7~-|--2--2-2-2-2---2-2--2--2-2-2--|
A|--2-2-2-2-----2-2-2--------|--0--0-0-0-0------------------|
E|--0-0-0-0-----0-0-0--------|------------------------------|

The entire song is just the E and A chord


  E
I once had a life, or rather
A
Life had me
      E
I was one among many
      A
Or at least I seemed to be
        E                          A
Well, I read an old quotation in a book just yesterday
            E
Said "Gonna reap just what you sow,
             A
The debts you make you have to pay."
                    
Can you get to that?

E
Can you get (I wanna know)
A
I want to know if you can get to that (hey!) (get to that!)
E
Can you get (can you get to that)(I wanna know)
A
I want to know if you can get to that

It's a really fun song to play, and easy too.


for suggestions/questions/spam/viruses:
i.m.bleach@gmail.com


| /  slide up
| \  slide down
| h  hammer-on
| p  pull-off
| ~  vibrato
| +  harmonic
| x  Mute note
===============================================================================
Добавлено: 19.04.2012
Другие материалы по этой песне:
  • Аккорды и текст

Страница создана 19.04.2012
http://primanota.ru/funkadelic/can-you-get-to-that-chords.htm
Привет, Гость.
Предлагаем пройти революционный курс по гитаре.
Подарок от PrimaNota.Ru, забирай!