PrimaNota.ru - самый крупный в мире бесплатный архив песенных текстов, аккордов, табулатур и нот


Funeral Party - New York City Moves To The Sound Of La - текст песни, таба, видео

Регистрация Запомнить меня
Войти через:  Facebook Google Twitter Vk Yandex Mail.ru

Funeral Party - New York City Moves To The Sound Of La - текст песни, таба, видео

Печатать
Просмотров: 82
Bass Intro

e-------------------------|
B-------------------------|
G-------------------------|
D-------------------------| (8 times)
A-------------------------|
E---3-0-3-0-3-3--0-3-0-3-0|

On the 5th repeat of the bass line play this

e----------------------------------|
B----------------------------------|
G---4s10--10s4s10s4----------------|
D--|slide slowly creating harmonics|
A----------------------------------|
E----------------------------------|

e---x----|
B---x----|
G---12---|
D---12---| (4 times 16 bars up down strumming fast)
A---10---|
E---x----|

e---------------------------|
B---------------------------|
G---12---12---12---12-------|x3
D-----12---12---------12-14-|
A---------------14----------|
E---------------------------|

e---------------------------|
B---------------------------|
G---12---12---12------------|x1
D-----12---12------b12------|
A---------------14----------|
E---------------------------|

e---------------------------|
B---------------------------|
G---12---12---12---12------ |x3
D-----12---12---------12-14-|
A---------------14----------|
E---------------------------|

e---------------------------|
B---------------------------|
G---12---12---12------------| x1
D-----12---12------b12------|
A---------------14----------|
E---------------------------|

e------------------x--x----- -------|-x----|
B------------------x--x---12--12-12-|-12-s-|
G---12---12---12---12-12--12--12-12-|-12-s-|
D-----12---12------12-12--12--12-12-|-12-s-|x(4 times 8 bars)
A---------------14-x--x---x---x--x--|-x----|
E------------------x--x---x---x--x--|-x----|
                        |down stroke||very-fast 
                        |1 + 2 times| up + down|

e------------x-------------------------------------------|
B------------x-------------------------------------------|
G---12-12----12-10--10s12----12br-12-10-12-12br-12-10-12-|
D---------12-12----------12-|half step|--|half step|-----|
A------------x------------ -|down--------|down-----------|
E------------x-------------------------------------------|

e------------x-------------------------------------------------------|
B------------x-------------------------------------------------------|
G---12-12----12-10--10s12----12br-12-10-12-12br-12-b12-br12-br12-br12| 
D---------12-12----------12--|1/2 step|--|1/2 step|--|quick 1/4 step||
A------------x------------ ------------------------------------------|
E------------x-------------------------------------------------------|

e------------x--------------------------------------------|
B------------x--------------------------------------------|
G---12-12----12-10--10s12----12br-12-10-12-12br-12-10-12--|
D---------12-12----------12-|half step|--|half step|------|x2
A------------x------------ -|down--------|down------------|
E------------x--------------------------------------------|

e------------x--------------------------|
B------------x--------------------------|
G---12-12----12-10--10s12----12-12-12s--|
D---------12-12----------12-------------|
A------------x------------ -------------|
E------------x--------------------------|

e---------------------------|
B---------------------------|
G---12---12---12---12------ |x2
D-----12---12---------12-14-|
A---------------14----------|
E---------------------------|

e---------------------------|
B---------------------------|
G---12---12---12------------| x1
D-----12---12------b12------|
A---------------14----------|
E---------------------------|

e---------------------------|
B---------------------------|
G---12---12---12---12------ |x3
D-----12---12---------12-14-|
A---------------14----------|
E---------------------------|

e---------------------------|
B---------------------------|
G---12---12---12------------| x1
D-----12---12------b12------|
A---------------14----------|
E---------------------------|

e------------------x--x----- -------|-x--|
B------------------x--x---12--12-12-|-12-|
G---12---12---12---12-12--12--12-12-|-12-|
D-----12---12------12-12--12--12-12-|-12-| x(4 times 8 bars)
A---------------14-x--x---x---x--x--|-x--|
E------------------x--x---x---x--x--|-x--|
                        |down stroke||very-fast 
                        |1 + 2 times| up + down|

e------------x-------------------------------------------|
B------------x-------------------------------------------|
G---12-12----12-10--10s12----12br-12-10-12-12br-12-10-12-|
D---------12-12----------12-|half step|--|half step|-----|
A------------x------------ -|down--------|down-----------|
E------------x-------------------------------------------|

e------------x-------------------------------------------------------|
B------------x-------------------------------------------------------|
G---12-12----12-10--10s12----12br-12-10-12-12br-12-b12-br12-br12-br12| 
D---------12-12----------12--|1/2 step|--|1/2 step|--|quick 1/4 step |
A------------x------------ -|down--------|down-----------------------|
E------------x-------------------------------------------------------|

e------------x--------------------------------------------|
B------------x--------------------------------------------|
G---12-12----12-10--10s12----12br-12-10-12-12br-12-10--12-|
D---------12-12----------12-|half step|--|half step|------|
A------------x------------ -|down--------|down------------|
E------------x--------------------------------------------|

e------------x----------------------|--------------------------------|
B------------x----------------------|--------------------------------|
G---12-12----12-10--10s12----12-12--|--12 (8 times)-s3 (8 times)-s12-|
D---------12-12----------12---------|-|very fast down ---------------|
A------------x------------ ---------|- -up strumming|----------------|
E------------x----------------------|--------------------------------|

e---------------------------|
B---------------------------|
G--12s3s12-12s3s12 ---------|
D-|keep strumming up--------|
A-down sliding slowly-------|
E-creating naturalharmonics |



New York city loves to mess around with LA sound , LA sound

e---------------------------|---------------------|
B---------------------------|---------------------|
G---12---12---12---12--12---|-12---12---12---12---| x2
D-----12---12---14---12--14-|---12---14---12---14-|
A---------------------------|---------------------|
E---------------------------|---------------------|

(Chorus chant) New York city loves to mess around with LA sound , LA sound

e---------------------------|---------------------|
B---------------------------|---------------------|
G---12---12---12---12--12---|-12---12---12---12---| 
D-----12---12---14---12--14-|---12---14---12---14-|
A---------------------------|---------------------|
E---------------------------|---------------------|

e---------------------------|---------------------|-x --
B---------------------------|---------------------|-12--
G---12---12---12---12--12---|-12---12---12---12---|-12-- x(16 times 8 bars)
D-----12---12---14---12--14-|---12---14---12------|-12--
A---------------------------|---------------------|-x --
E---------------------------|---------------------|-x --


e------------x-------------------------------------------|
B------------x-------------------------------------------|
G---12-12----12-10--10s12----12br-12-10-12-12br-12-10-12-|
D---------12-12----------12-|half step|--|half step|-----|
A------------x------------ -|down--------|down-----------|
E------------x-------------------------------------------|

e------------x-------------------------------------------------------|
B------------x-------------------------------------------------------|
G---12-12----12-10--10s12----12br-12-10-12-12br-12-b12-br12-br12-br12| 
D---------12-12----------12--|1/2 step|--|1/2 step|--|quick 1/4 step |
A------------x------------ -|down--------|down-----------------------|
E------------x-------------------------------------------------------|

e------------x-------------------------------------------|
B------------x-------------------------------------------|
G---12-12----12-10--10s12----12br-12-10-12-12br-12-10-12-|
D---------12-12----------12-|half step|--|half step|-----|
A------------x------------ -|down--------|down-----------|
E------------x-------------------------------------------|

e------------x----------------------|--------------------------------|
B------------x----------------------|--------------------------------|
G---12-12----12-10--10s12----12-12--|--12 (8 times)-s3 (8 times)-s12-|
D---------12-12----------12---------|-|very fast down ---------------|
A------------x------------ ---------|- -up strumming|----------------|
E------------x----------------------|--------------------------------|

e---------------------------|-------|
B---------------------------|-------|
G--12s3s12-12s3s12 ---------|-12s---|
D-|keep strumming up--------|-------|
A-down sliding slowly-------|-------|
E-creating naturalharmonics |-------|
Добавлено: 20.11.2013
Другие материалы по этой песне:
  • Аккорды и текст

Страница создана 20.11.2013
http://primanota.ru/funeral-party/new-york-city-moves-to-the-sound-of-la-chords.htm
Привет, Гость.
Предлагаем пройти революционный курс по гитаре.
Подарок от PrimaNota.Ru, забирай!