PrimaNota.ru - самый крупный в мире бесплатный архив песенных текстов, аккордов, табулатур и нот


Funeral For A Friend - To Die Like Mouchette - таба, видео

Регистрация Запомнить меня
Войти через:  Facebook Google Twitter Vk Yandex Mail.ru

Funeral For A Friend - To Die Like Mouchette - таба, видео

Печатать
Просмотров: 80
----------------------------------------------------------------------------
               To Die Like Mouchette-Funeral For a Friend

----------------------------------------------------------------------------
Song: To Die Like Mouchette
Band: Funeral For a Friend
Album: Memory and Humanity

Tabbed by: Paul McDermott

Not many tabs off this album so I thought I might try and do some myself, great song!

Tuning: Dropped-D down half-a-step

Verse 1
eb|-----------------------------------------------------|
Bb|-----------------------------------------------------|
Gb|-----------------------------------------------------| x8
Db|-----------------------------------------------------|
Ab|-4h5p4p0---------------5h7p5p0----7h9p7p0----9h10-7~-|
Db|---------0--4h5p4p0-0----------0----------0----------|

After 4 times the rhythm guitar comes in
Guitar 2
eb|--------------------------------------------------------------------------|
Bb|--------------------------------------------------------------------------|
Gb|--77-77-77-77-777~--------------------------------------------------------|
Db|--------------------------------------77-77-77-77-777~--------------------|
Ab|--55-55-55-55-555~--00-00-00-00-000~--55-55-55-55-555~--7777777777777777~-|
Db|--------------------00-00-00-00-000~--55-55-55-55-555~--7777777777777777~-|


Chorus
Guitar 1 (hard to hear so its a rough guide)
eb|--------------------------------------------------------------------------|
Bb|-7-8-10-10-10-7-7-7--10-8-7-7-10-8-7-7--10-8-7-7-10-8-7-7-7777777777-7-7~-|
Gb|7-7-7--7--7--7-7-7--7--7-7-7-7--7-7-7--7--7-7-7-7--7-7-7--6667779997-7-7~-|
Db|--------------------------------------------------------------------------|
Ab|--------------------------------------------------------------------------|
Db|--------------------------------------------------------------------------|

Guitar 2
eb|-------------------------------------------------------------------------|
Bb|-------------------------------------------------------------------------|
Gb|-------------------------------------------------------------------------|
Db|-0000000000000000-7777777777777777-999999999999999-55555555----7-7-7-----|
Ab|-0000000000000000-7777777777777777-999999999999999-55555555-55-7-7-7-0~--|
Db|-0000000000000000-7777777777777777-999999999999999-55555555-44-7-7-7-0~--|

Verse 2 (same as verse 1 except guitar 2 comes in on second chord on the second 
time the riff is played)

Chorus (same as first but played twice)

Interlude
Guitar 1 (all notes tremolo picked with lots of reverb)
eb-----------------------------------------------------|
Bb|------10----------10-----8--7--8--7--3-5------10----|
Gb|-6--7--------6--7-------------------------6--7------|
Db|----------------------------------------------------|
Ab|----------------------------------------------------|
Db|----------------------------------------------------|

eb|----------------------------------------------------|
Bb|------10----------10-----8--7--8--7--3-5--7--8---10-|
Gb|-6--7--------6--7-----------------------------------|
Db|----------------------------------------------------|
Ab|----------------------------------------------------|
Db|----------------------------------------------------|

Guitar 2
eb|-----------------------------------------------------------------------|
Bb|-----------------------------------------------------------------------|
Gb|-----------------------------------------------------------------------|
Db|-77-77-77-77-777-------------------------------------------------------|x2
Ab|-55-55-55-55-555--77-77-77-77-777--99-99-99-99-999--55-55-55-55-7-7----|
Db|------------------77-77-77-77-777--99-99-99-99-999--55-55-44-55-7-7----|

Both Guitars
eb|---------------------------------|
Bb|---------------------------------|
Gb|--- ("please believe in wha...")
Db|-0~------------------------------|
Ab|-0~------------------------------|
Db|-0~------------------------------|

Chorus x2 (same as first but guitar 1 plays interlude and both come in after first chord)
(also guitar 2 plays interlude rhythm for 2nd to last chord only)

eb|------------------|
Bb|-10~-(guitar 1)---|
Gb|------------------|
Db|-0~---------------|
Ab|-0~-(guitar 2)----|
Db|-0~---------------|

| /  slide up
| \  slide down
| h  hammer-on
| p  pull-off
| ~  vibrato
| +  harmonic
| x  Mute note
============================================================================
Добавлено: 05.05.2012
Другие материалы по этой песне:

Страница создана 05.05.2012
http://primanota.ru/funeral-for-a-friend/to-die-like-mouchette-chords.htm
Привет, Гость.
Предлагаем пройти революционный курс по гитаре.
Подарок от PrimaNota.Ru, забирай!