PrimaNota.ru - самый крупный в мире бесплатный архив песенных текстов, аккордов, табулатур и нот


Funeral For A Friend - The Getaway Plan - аккорды и текст, таба, бас-таба, видео

Регистрация Запомнить меня
Войти через:  Facebook Google Twitter Vk Yandex Mail.ru

Funeral For A Friend - The Getaway Plan - аккорды и текст, таба, бас-таба, видео

Печатать
Просмотров: 168
The Getaway Plan
Funeral For A Friend
FUNERAL FOR A FRIEND

THE GETAWAY PLAN

Tabbed by colminblack (roystonvasey1@msn.com)
 
/ = slide up

Intro (0:11)
 E|----------------------------------|----------------------------------|
 B|----------------------------------|----------------------------------|
F#|----------------------------------|----------------------------------|
Db|-44444-4444444-4444444-4444444-44-|-44444-4444444-4444444-4444444-44-|


 E|----------------------------------|----------------------------------|
 B|----------------------------------|----------------------------------|
F#|----------------------------------|----------------------------------|
Db|-44444-4444444-4444444-4444444-44-|-44444-4444444-4444444-4444444-44-|


 E|----------------------------------|---|
 B|----------------------------------|---|
F#|----------------------------------|---|
Db|-4HOLD----------4HOLD-------------|-4-|



VERSE (0:42) x2
 E|----------------------------------|----------------------------------|
 B|----------------------------------|----------------------------------|
F#|----------------------------------|----------------------------------|
Db|-2/444---2/444---5-4-5/7777-------|-2/444---2/444---5-4-5/7777-------|


 E|----------------------------------|----------------------------------|
 B|----------------------------------|----------------------------------| 
F#|----------------------------------|----------------------------------|
Db|-2/444---2/444---5-4-5/7777-------|-2/444---2/444---5-4-5/7777-------|



CHORUS (1:00)
 E|----------------------------------|----------------------------------|
 B|----------------------------------|----------------------------------|
F#|-5-5--5--5-5--5--7-7--7--9-9--7---|-5-5--5--5-5--5--7-7--7--9-9--7---|
Db|----------------------------------|----------------------------------|


 E|----------------------------------|----------------------------------|
 B|----------------------------------|----------------------------------|
F#|----------------------------------|---------------------------7--9---|
Db|-4-4--4--4-4--4--4-4--4--4-5--7---|-5-5--5--5-5--5--5-5--5--5--------|


 E|----------------------------------|----------------------------------|
 B|----------------------------------|----------------------------------|
F#|-7-7--7--7-7--7--7-7--7--7-9--7---|-2-2--2--2-2--2--3-3--3--3-3------|
Db|----------------------------------|------------------------------0---|


                                 

 E|----------------------------------|----------------------------------|
 B|----------------------------------|----------------------------------|
F#|----------------------------------|----------------------------------|
Db|-4-4--4--4-4--4--4-4--4--4-4--4---|-5-5--5--5-5--5--5-5--5--5-5--5---|


 E|----------------------------------|----------------------------------|
 B|----------------------------------|----------------------------------|
F#|-7-7--7--7-7--7--7-7--7--7-7--7---|-2-2--2--2-2--2--3-3--3--3-3------|
Db|----------------------------------|------------------------------0-4-|



VERSE (1:47) x2
 E|----------------------------------|----------------------------------|
 B|----------------------------------|----------------------------------|
F#|----------------------------------|----------------------------------|
Db|-2/444---2/444---5-4-5/7777-------|-2/444---2/444---5-4-5/7777-------|


 E|----------------------------------|----------------------------------|
 B|----------------------------------|----------------------------------| 
F#|----------------------------------|----------------------------------|
Db|-2/444---2/444---5-4-5/7777-------|-2/444---2/444---5-4-5/7777-------|



CHORUS (2:06)
 E|----------------------------------|----------------------------------|
 B|----------------------------------|----------------------------------|
F#|-5-5--5--5-5--5--7-7--7--9-9--7---|----------------------------------|
Db|----------------------------------|-4-4--4--4-4--4--4-4--4--4-4--4---|


 E|----------------------------------|----------------------------------|
 B|----------------------------------|----------------------------------|
F#|----------------------------------|-7-7--7--7-7--7--7-7--7--7-7—-7---|
Db|-5-5--5--5-5--5--5-5--5--5-5--5---|----------------------------------|


 E|----------------------------------|----------------------------------|
 B|----------------------------------|----------------------------------|
F#|-2-2--2--2-2--2--3-3--3--3-3------|----------------------------------|
Db|------------------------------0---|-4-4--4--4-4--4--4-4--4--4-4--4---|


 E|----------------------------------|----------------------------------|
 B|----------------------------------|----------------------------------|
F#|----------------------------------|-7-7--7--7-7--7--7-7--7--7-7—-7---|
Db|-5-5--5--5-5--5--5-5--5--5-5--5---|----------------------------------|


 E|----------------------------------|
 B|----------------------------------|
F#|-2-2--2--2-2--2--3-3--3--3-3------|
Db|------------------------------0---|







BRIDGE (2:45)
 E|----------------------------------|----------------------------------|
 B|----------------------------------|----------------------------------|
F#|----------------------------------|----------------------------------|
Db|-4-4---44444-----4-4---44444------|-5-5---55555-----5-5---55555------|


 E|----------------------------------|----------------------------------|
 B|----------------------------------|----------------------------------|
F#|-7-7---77777-----7-7---77777------|-2-2---22222-----3-3---33333------|
Db|----------------------------------|----------------------------------|


 E|----------------------------------|----------------------------------|
 B|----------------------------------|----------------------------------|
F#|----------------------------------|-----------------------5-2-5------|
Db|-4-4-4-4HOLD-----4-4-4-7-4-4------|-5-5-5-5HOLD---5-7-5-7------------|
			

 E|----------------------------------|----------------------------------|
 B|----------------------------------|----------------------------------|
F#|-7-7-7-7HOLD-----7-9-7-9-7-5------|-2-2-2-2HOLD---2-3-3-3-3-3--------|
Db|----------------------------------|---------------------------0------|


 E|----------------------------------|----------------------------------|
 B|----------------------------------|----------------------------------|
F#|----------------------------------|-----------------------5-2-5------|
Db|-4-4-4-4HOLD-----4-4-4-7-4-4------|-5-5-5-5HOLD---5-7-5-7------------|
			

 E|----------------------------------|----------------------------------|
 B|----------------------------------|----------------------------------|
F#|-7-7-7-7HOLD-----7-9-7-9-7-5------|-2-2-2-2-2-2-2-2-3-3-3-3-3-3--3---|
Db|----------------------------------|----------------------------------|
                                  

OUTRO (3:35)
 E|----------------------------------|----------------------------------|
 B|----------------------------------|----------------------------------|
F#|----------------------------------|----------------------------------|
Db|-4-4--4--4-4--4--4-4--4--4-4--4---|-5-5--5--5-5--5--5-5--5--5-5--5---|


 E|----------------------------------|----------------------------------|
 B|----------------------------------|----------------------------------|
F#|-7-7--7--7-7--7--7-7--7--7-7--7---|-2-2--2--2-2--2--3-3--3--3-3------|
Db|----------------------------------|------------------------------0---|


 E|----------------------------------|----------------------------------|
 B|----------------------------------|----------------------------------|
F#|----------------------------------|----------------------------------|
Db|-44444444444444444444444444444444-|-55555555555555555555555555555555-|

 E|----------------------------------|----------------------------------|
 B|----------------------------------|----------------------------------|
F#|-77777777777777777777777777777777-|-2222222222222222333333333333333--|
Db|----------------------------------|--------------------------------0-|
Добавлено: 05.03.2012
Другие материалы по этой песне:

Страница создана 05.03.2012
http://primanota.ru/funeral-for-a-friend/the-getaway-plan-chords.htm
Привет, Гость.
Предлагаем пройти революционный курс по гитаре.
Подарок от PrimaNota.Ru, забирай!