PrimaNota.ru - самый крупный в мире бесплатный архив песенных текстов, аккордов, табулатур и нот


Funeral For A Friend - Serpents In Solitude - текст песни, бас-таба, видео

Регистрация Запомнить меня
Войти через:  Facebook Google Twitter Vk Yandex Mail.ru

Funeral For A Friend - Serpents In Solitude - текст песни, бас-таба, видео

Печатать
Просмотров: 135
Уроки эстрадного вокала в Санкт-Петербурге
Funeral For a Friend
Serpents in Solitude
Db tuning


This sounds 100% correct to me but there may be mistakes.
any corrections please comment

The tab is so long because I wanted to get as much detail in as possible, there 
are very slight changes
in some parts which I wanted to get in.

Also anything that looks like a ten IS a ten

Intro		 
Gb|----------------------------------------------------------------------|
Db|----------------------------------------------------------------------|
Ab|-77777777777777777-5555555555555555-0000000000000000-3333333333333333-|
Db|----------------------------------------------------------------------|


Intro part 2
Gb|--------------------------|
Db|--------------------------| x3
Ab|----5h7-------------------|     <<< this is played faster than it looks
Db|-2/7----0-5-7-9-0-4-5-7-0-|         I've just spaced it so its easier to see

Gb|-------------------------------|
Db|-------------------------------|
Ab|-3333333---55555555------------|
Db|---------0----------2222222222.|

Verse
Gb|-------------------------------------------------------------------|
Db|-------------------------------------------------------------------|
Ab|-------------------------------------------------------------------|
Db|-2-2-2-2-2-2-2-2-2-2-2-2-55555555-2-2-2-2-2-2-2-2-2-2-2-2-55557777-|


Gb|-------------------------------------------|
Db|--------45-----4-5---------45-55554444-----|
Ab|---57------5-7---------57------------------| x2
Db|-00---00--0-0-0-0----00--00----------------|


Gb|-------------------------------------------------------------------|
Db|-------------------------------------------------------------------|
Ab|-------------------------------------------------------------------|
Db|-2-2-2-2-2-2-2-2-2-2-2-2-55555555-2-2-2-2-2-2-2-2-2-2-2-2-55557777-|

Gb|-------------------------------------------|
Db|--------45-----4-5---------45-55554444-----|
Ab|---57------5-7---------57------------------|
Db|-00---00--0-0-0-0----00--00----------------|

Gb|-------------------------------------------|
Db|--------45-----4-5---------45-54-4---------|
Ab|---57------5-7---------57---------7-75-5~--|
Db|-00---00--0-0-0-0----00--00----------------|


Chorus:
Gb|----------------------------------------|
Db|----------------------------------------|
Ab|-3-3333---5-55555-----------------------|
Db|--------0---------0-10\2-22-0-5555555-0-|

Gb|----------------------------------------|
Db|----------------------------------------|
Ab|-3-3333---------------------------------|
Db|--------00000000--22-2-2-2-2-2-2-000----|

Gb|----------------------------------------|
Db|----------------------------------------|
Ab|-3-3333---5-55555-----------------------|
Db|--------0---------0-10\2-22-0-5555555-0-|

Gb|--------------------------------------------------------------|
Db|--------------------------------------------------------------|
Ab|-3-3333-------------------------------------------------------|
Db|--------00000000--222-2-2222-222222000-222-2-2222-22222222000-|

Verse 2
Gb|-------------------------------------------------------------------|
Db|-------------------------------------------------------------------|
Ab|-------------------------------------------------------------------|
Db|-2-2-2-2-2-2-2-2-2-2-2-2-55555555-2-2-2-2-2-2-2-2-2-2-2-2-55557777-|

Gb|-------------------------------------------|
Db|--------45-----4-5---------45-55554444-----|
Ab|---57------5-7---------57------------------|
Db|-00---00--0-0-0-0----00--00----------------|

Gb|-------------------------------------------|
Db|--------45-----4-5---------45-54-4---------|
Ab|---57------5-7---------57---------7-75-5~--|
Db|-00---00--0-0-0-0----00--00----------------|


Chorus:
Gb|----------------------------------------|
Db|----------------------------------------|
Ab|-3-3333---5-55555-----------------------|
Db|--------0---------0-10\2-22-0-5555555-0-|

Gb|----------------------------------------|
Db|----------------------------------------|
Ab|-3-3333---------------------------------|
Db|--------00000000--22-2-2-2-2-2-2-000----|

Gb|----------------------------------------|
Db|----------------------------------------|
Ab|-3-3333---5-55555-----------------------|
Db|--------0---------0-10\2-22-0-5555555-0-|

Gb|-----------------------------------------------------------------|
Db|-----------------------------------------------------------------|
Ab|-3-33333---------------------------------------------------------|
Db|---------00000000-222-2-2222-222222000-10\222-2-2222-22222222000-|

-----------------------------------------------------|
-----------------------------------------------------|
-----------------------------------------------------|
-10\222-2-2222-22222222000-10\222-2-2222-22222222000-|

Bridge
Gb|----------------------------------------------------------------------|
Db|----------------------------------------------------------------------|
Ab|------------------------------------0000000000000000-3333333333333333-| x2
Db|-22222222222222222-0000000000000000-----------------------------------|

Chorus
Gb|----------------------------|
Db|----------------------------|
Ab|-3-3------5-5---------------|
Db|------------------2-2-------|

Gb|----------------------------------|
Db|----------------------------------|
Ab|-3-3------------------------------|
Db|-------0-0--22-2-2-2-2-2-2-000----|

Gb|----------------------------------------|
Db|----------------------------------------|
Ab|-3-3333---5-55555-----------------------|
Db|--------0---------0-10\2-22-0-5555555-0-|

Gb|-----------------|
Db|-----------------|
Ab|-3-3333----------|
Db|--------00000000-|

Outro
Gb|--------------------------|
Db|--------------------------| x3
Ab|----5h7-------------------| 
Db|-2/7----0-5-7-9-0-4-5-7-0-| 

Gb|-----------------------|
Db|-----------------------|
Ab|-3333333---------------|
Db|---------00000000-2.---|
Добавлено: 10.07.2012
Другие материалы по этой песне:

Страница создана 11.06.2012
http://primanota.ru/funeral-for-a-friend/serpents-in-solitude-chords.htm
Привет, Гость.
Предлагаем пройти революционный курс по гитаре.
Подарок от PrimaNota.Ru, забирай!