PrimaNota.ru - самый крупный в мире бесплатный архив песенных текстов, аккордов, табулатур и нот


Funeral For A Friend - Old Hymms - таба, видео

Регистрация Запомнить меня
Войти через:  Facebook Google Twitter Vk Yandex Mail.ru

Funeral For A Friend - Old Hymms - таба, видео

Печатать
Просмотров: 97
Funeral for a Friend
Old Hymms
Welcome Home Armageddon 2010

C#G#C#F#A#D#

Intro
Rhythm
|----------|
|----------|
|-9--------|
|-9--9--11-|
|-7--9--11-|
|----9--11-|

Verse
Rhythm
|--------------------------|
|--------------------------|
|--------9-----------------|
|-11-----9-x16-9-----7-----|
|-11-x16-7-----9-x16-7-x16-| x2
|-11-----------9-----7-----|

Lead
|-12-11-------14-11-------16-11-------14-11-------|-9-7-----11-7-----12-7-----11-7-----|
|-------12----------12----------12----------12----|-----9--------9--------9--------9---|
|----------11----------11----------11----------11-|-------8--------8--------8--------8-|
|-------------------------------------------------|------------------------------------|
|-------------------------------------------------|------------------------------------|
|-------------------------------------------------|------------------------------------|

|-------------------------------------|------------------------------9-11----|
|-------------------10-9--------------|----------------------9-10-12------12-|
|-9-8------11------------11-9-8-9-8---|---------------8-9-11-----------------|
|-----9--------9--------------------9-|---------6-7-9------------------------|
|-------11-------11-------------------|---6-7-9------------------------------| x2
|-------------------------------------|-9------------------------------------|

Chorus
Rhythm
|----------------------|
|----------------------|
|------------9---------|
|-9----11----9-x3-7----|
|-9-x3-11-x3-7----7-x3-| x2
|-9----11---------7----|

Lead
|-12p11-----------------------------------------------|
|-------12---------9h10p9-----------------------------|
|----------11/9~----------9-----------9---------------|
|---------------------------9~--6h7h9---6/9~---7-9-6~-|
|-----------------------------------------------------| x2
|-----------------------------------------------------|

Repeat Verse
Chorus 2
Rhythm
|----------------------|-----------------------------|
|----------------------|-----------------------------|
|------------9---------|------------9----------------|
|-9----11----9-x3-7----|-9----11----9-x3-7-----9-----|
|-9-x3-11-x3-7----7-x3-|-9-x3-11-x3-7----7-x16-9-x16-|
|-9----11---------7----|-9----11---------7-----9-----|

Lead
|-11h12p11-----------------------------------------------|
|----------12---------9h10p9-----------------------------|
|-------------11/9~----------9-----------9---------------|
|------------------------------9~--6h7h9---6/9~---7-9-6~-|
|--------------------------------------------------------| 
|--------------------------------------------------------|

|-11h12p11--------------------------------------------------------------|
|----------12---------9h10p9--------------------------------------------|
|-------------11/9~----------9-----------9-------------------8-x13-9-x3-|
|------------------------------9~--6h7h9---6/9~---7-x13-9-x3------------|
|-----------------------------------------------------------------------| 
|-----------------------------------------------------------------------|

Bridge
Rhythm
|------------------------------------------------------------------|
|------5-----5---5-----5-----5---5-----5-----5---5-----5-----5---5-|
|------4-----4---4-----4-----4---4-----4-----4---4-----4-----4---4-|
|------------------------------------------------------------------|
|-4-4----4-4---4-------------------2-2---2-2---2---2-2---2-2---2---| x2
|------------------2-2---2-2---2-----------------------------------|

|-----------------|----|---|
|-5----5----5-----|----|-5-|
|-6----4----4-----|----|-4-|
|-6-x8-2-x8-4-x16-|----|-2-|
|-4----2----2-----|-x4-|-2-|
|------2----------|----|-2-|

Lead
|---------------------------------------------------|
|-8/12-12-12----------------------------------------|
|------------11-11-11-13-13-13-13-13-13-13-13-13-13-|
|---------------------------------------------------|
|---------------------------------------------------|
|---------------------------------------------------|

|-------------------------------------------------|
|-12-12-12----------------------------------------|
|-------------------------------------------------|
|----------13-13-13-14-14-14-14-14-14-14-14----11-|
|-------------------------------------------14----|
|-------------------------------------------------|


|-------------------------|-------------------------------------|
|-------------------------|-12/16-16-16-16-16-16-16-16-16-16-16-|
|-------------------------|-------------------------------------|
|-13-14-13-11----11-11-11-|-------------------------------------|
|-------------14----------|-------------------------------------|
|-------------------------|-------------------------------------|

14-------14-------14-------14-----11-------|
---12-12----12-12----12-12----12-----12----|
----------------------------------------13-|
-------------------------------------------|
-------------------------------------------| x3
-------------------------------------------|
Добавлено: 15.06.2012
Другие материалы по этой песне:
  • Аккорды и текст

Страница создана 15.06.2012
http://primanota.ru/funeral-for-a-friend/old-hymms-chords.htm
Привет, Гость.
Предлагаем пройти революционный курс по гитаре.
Подарок от PrimaNota.Ru, забирай!