PrimaNota.ru - самый крупный в мире бесплатный архив песенных текстов, аккордов, табулатур и нот


Funeral For A Friend - Kiss And Make Up - аккорды и текст, таба, бас-таба, видео

Регистрация Запомнить меня
Войти через:  Facebook Google Twitter Vk Yandex Mail.ru

Funeral For A Friend - Kiss And Make Up - аккорды и текст, таба, бас-таба, видео

Печатать
Просмотров: 150
Kiss And Make Up
Funeral For A Friend
Funeral For A Friend - Kiss And Makeup
 
iNTRO

G|-------------------
D|-------------------
A|---2~--------------
E|--------4~---2~---0 X2

Ends on

G|------
D|------
A|--2~--
E|------

Verse

G|--------------------------------------------------------------
D|--------------------------------------------------------------
A|-----------------------------------------------7--7---7--3/5--
E|---9-9--9-9-9--9-9-9-9/11-11-11---9-9--9-9--9-----------------

G|------------------------------------------------------------------
D|------------------------------------------------------------------
A|------------------------------------------------------------------
E|---4-4-4--4-4--4-4/6-6-6--7-7-7---3-3-3--3-3--3-3/5-5-5--7-7-7-7--

G|--------------------------------------------------------------
D|--------------------------------------------------------------
A|-----------------------------------------------7--7---7--3/5--
E|---9-9--9-9-9--9-9-9-9/11-11-11---9-9--9-9--9-----------------

G|
D|------------------------------------------------------------------
A|--------------------------------------------------2-2-2-2---------
E|---4-4-4--4-4--4-4/6-6-6--8-8-8---4-4-4--4-4--4-------------------

CHorus

G|-------------------
D|-------------------
A|---7/8~---7/8--10--
E|------------------- x8

Verse 2

G|--------------------------------------------------------------
D|--------------------------------------------------------------
A|-----------------------------------------------7--7---7--3/5--
E|---9-9--9-9-9--9-9-9-9/11-11-11---9-9--9-9--9-----------------

G|------------------------------------------------------------------
D|------------------------------------------------------------------
A|------------------------------------------------------------------
E|---4-4-4--4-4--4-4/6-6-6--7-7-7---3-3-3--3-3--3-3/5-5-5--7-7-7-7--

G|--------------------------------------------------------------
D|--------------------------------------------------------------
A|-----------------------------------------------7--7---7--3/5--
E|---9-9--9-9-9--9-9-9-9/11-11-11---9-9--9-9--9-----------------

G|------------------------------------------------------------------
D|------------------------------------------------------------------
A|--------------------------------------------------2-2-2-2---------
E|---4-4-4--4-4--4-4/6-6-6--8-8-8---4-4-4--4-4--4-------------------

CHorus 2

G|-------------------
D|-------------------
A|---7/8~---7/8--10--
E|------------------- x16

Interlude

G|------------------------------------------------------------------------
D|------------------------------------------------------------------------
A|------------------------------------------6h7----------------------6h7--
E|---1--1-1---/9--9--11---1--13---9-9-8-9-----11-11-9-11-8h9-11-11------ x4

Outro (optional)

I don't think there is any bass here but if you want you can play this

G|--------------------------------------------------------------------------
D|--------------------------------------------------------------------------
A|---7--7--7--7--7--7--7--7--7--7--7--7--7--7-------------------------------
E|---------------------------------------------1--6-6-6-6-6-6--9-9-9-9-9-9-- x4

G|--------
D|--------
A|---7~---
E|--------

100% correct ( tabbed from official book)
Добавлено: 14.10.2013
Другие материалы по этой песне:

Страница создана 21.03.2012
http://primanota.ru/funeral-for-a-friend/kiss-and-make-up-chords.htm
Привет, Гость.
Предлагаем пройти революционный курс по гитаре.
Подарок от PrimaNota.Ru, забирай!