PrimaNota.ru - самый крупный в мире бесплатный архив песенных текстов, аккордов, табулатур и нот


Funeral For A Friend - The End Of Nothing - текст песни, таба, видео

Регистрация Запомнить меня
Войти через:  Facebook Google Twitter Vk Yandex Mail.ru

Funeral For A Friend - The End Of Nothing - текст песни, таба, видео

Печатать
Просмотров: 97
ARTIST: Funeral For A Friend
TITLE:  The End Of Nothing
TABBER:	Luke Charman (emoluke {AT} gmail.com)
ALBUM:  Hours
GENRE:  Emocore
YEAR:	2005

Here's The End Of Nothing, they played it at Give It A Name, and it's
a proper metal song. I like it a lot. Kris' guitar is first, then Darran's
underneath it.

Enjoy!

----------------------------------------------------------------------------

Intro:

eb|------------------|---------------------------------|
Bb|------------------|---------------------------------|
Gb|------------------|---------------------------------|
Db|-7---5------------|---------------------------------|
Ab|-------8--7-5-3-5-|-000-0-000-000-0-000-000-000-000-|
Db|------------------|-000-0-000-000-0-000-000-000-000-|
  |                    ... . ... ... . ... ... ... ...
  |
eb|------------------|---------------------------------|
Bb|------------------|---------------------------------|
Gb|------------------|---------------------------------|
Db|-10--8-7----------|-0~------------------------------|
Ab|---------10-8-7-8-|-0~------------------------------|
Db|------------------|-0~------------------------------|


Verse:

eb|-------------------------------|---------------------------------|
Bb|-------------------------------|---------------------------------|
Gb|-------------------------------|---------------------------------|
Db|-----7------7---------7--------|-------7----8-----7---5----8---7-|
Ab|-------10-8-----10--8---10-8-7-|---------------------------------|
Db|-0-0----------0----------------|-000-0---0----0-0---0---0----0---|
  | . .          .                  ... .   .    . .   .   .    .
  |
eb|-------------------------------|---------------------------------|
Bb|-------------------------------|---------------------------------|
Gb|-7---7--7-7-7-7-10-10-10-10-10-|---------------------------------|
Db|-x---x--x-x-x-x--x--x--x--x--x-|---------------------------------|
Ab|-5---5--5-5-5-5--8--8--8--8--8-|-------8---10-----8---7---10---8-|
Db|-------------------------------|-000-0---0----0-0---0---0----0---|
                                    ... .   .    . .   .   .    .

Pre-Chorus:

eb|----------------------------------------------------------------------|
Bb|----------------------------------------------------------------------|
Gb|----------------------------------------------------------------------|
Db|----------------------------------------------------------------------|
Ab|-000-0-0-7p5-8p5-000-0-0-8p7-10p7-000-0-0-7ph-8p5---------7-8-7-------|
Db|-000-0-0---------000-0-0----------000-0-0---------10-7-10-------10h12-|
  | ... . .         ... . .          ... . .          . . .  . . . 
  |
eb|----------------------------------------------------------------------|
Bb|----------------------------------------------------------------------|
Gb|---------9-9-9-9---------10101010---------12121212--------------------|
Db|---------x-x-x-x----------x-x-x-x----------x-x-x-x--------------------|
Ab|-000-0-0-7-7-7-7-000-0-0--8-8-8-8-000-0-0-10101010--------------------|
Db|-000-0-0---------000-0-0----------000-0-0-----------------------------|
    ... . .         ... . .          ... . .

eb|----|
Bb|----|
Gb|-14-| (Both guitars end the pre-chorus on this).
Db|--x-|
Ab|-12-|
Db|----|


Chorus:

eb|----------------------------------------------------|
Bb|----------------------------------------------------|
Gb|-------------------------------------------------10-|
Db|-------7-----7----------10------7---------10-7------|
Ab|-5-7-8---8-7---8-7-8-10----10-8---8-5-7-8------8----|
Db|----------------------------------------------------|
  | . . .   . .   . . .  .    .  .   . . . .      .
  |
eb|----------------------------------------------------|
Bb|----------------------------------------------------|
Gb|-7-7-7-7-7-7-7-7-9-9--9--9--9-9-9-9-10101010101010--|
Db|-x-x-x-x-x-x-x-x-x-x--x--x--x-x-x-x--x-x-x-x-x-x-x--|
Ab|-5-5-5-5-5-5-5-5-7-7--7--7--7-7-7-7--8-8-8-8-8-8-8--|
Db|----------------------------------------------------|


eb|-------------------|-----------------|
Bb|-------------------|-----------------| (These two endings are
Gb|-------------------|-----------------|   alternated on the 1st and 3rd
Db|--------5----------|--7-5------------|     times through the riff, and
Ab|-5--7-8---8-7--5-3-|------8--7-5-3-5-|       on the 2nd and 4th times
Db|-------------------|-----------------|         through the riff).
  |
  |
eb|-------------------|-----------------|
Bb|-------------------|-----------------|
Gb|-------------------|-----------------|
Db|------7-8-7--------|-10-8-7----------|
Ab|-8-10-------10-8-7-|--------10-8-7-8-|
Db|-------------------|-----------------|


Fill:

eb|---------------------------------|---------------------------------|
Bb|---------------------------------|---------------------------------|
Gb|---------------------------------|---------------------------------|
Db|---------------------------------|---------------------------------|
Ab|-000-0-000-000-0-000-000-000-000-|-000-0-000-000-0-000-000-000-000-|
Db|-000-0-000-000-0-000-000-000-000-|-000-0-000-000-0-000-000-000-000-|
  | ... . ... ... . ... ... ... ...   ... . ... ... . ... ... ... ...
  |
eb|---------------------------------|---------------------------------|
Bb|---------------------------------|---------------------------------|
Gb|---------------------------------|---------------------------------|
Db|-0~------------------------------|---------------------------------|
Ab|-0~------------------------------|---------------------------------|
Db|-0~------------------------------|---------------------------------|


Bridge:

eb|--------------------------------------------------------------|
Bb|--------------------------------------------------------------|
Gb|--------------------------------------------------------------|
Db|--------------------------------------------------------------|
Ab|-000-0-000-000-0-000-000-000-000-000-0-000-000-0--------------|
Db|-000-0-000-000-0-000-000-000-000-000-0-000-000-0-7h10p7-6h9p6-|
  |
  |
eb|--------------------------------------------------------------|
Bb|--------------------------------------------------------------|
Gb|--------------------------------------------------------------|
Db|--------------------------------------------------------------|
Ab|-000-0-000-000-0-000-000-000-000-000-0-000-000-0-5h8p5--4h7p4-|
Db|-000-0-000-000-0-000-000-000-000-000-0-000-000-0--------------|


Ending:

eb|-------------------------------------|
Bb|-------------------------------------| (That last 5 of Kris' here
Gb|-------------------------------------|   is a pinch harmonic).
Db|--7-5---------------------5----------|
Ab|------8--7-5-3-5-5----7-8---8-7-3--5-|
Db|-------------------------------------|
  |
  |
eb|-------------------------------------|
Bb|-------------------------------------|
Gb|-------------------------------------|
Db|-10-8-7-----------------7-8-7------0-|
Ab|--------10-8-7-8-8---10-------10-7-0-|
Db|-----------------------------------0-|


Song Order:

Intro		Riff x1, muted chords x2
Verse		All x4
Pre-Chorus	With no guitar 2 octave chords x2, with octave chords x2
Chorus		All x4, Ending 1, then 2, then 1, then 2
Fill		Just the first half of it
Verse		All x4
Pre-Chorus	With no guitar 2 octave chords x2, with octave chords x2
Chorus		All x4, Ending 1, then 2, then 1, then 2
Fill		All x1
Bridge		All x5, fifth time no trilling
Chorus		All x4, Ending 1, then 2, then 1, then 2
Ending		All x1

----------------------------------------------------------------------------
Comments? Questions? Corrections? emoluke {AT} gmail.com
----------------------------------------------------------------------------
Добавлено: 25.07.2012
Другие материалы по этой песне:

Страница создана 21.02.2012
http://primanota.ru/funeral-for-a-friend/end-of-nothing-chords.htm
Привет, Гость.
Предлагаем пройти революционный курс по гитаре.
Подарок от PrimaNota.Ru, забирай!