PrimaNota.ru - самый крупный в мире бесплатный архив песенных текстов, аккордов, табулатур и нот


Funeral Dress - Im In Love With Oi - таба, видео

Регистрация Запомнить меня
Войти через:  Facebook Google Twitter Vk Yandex Mail.ru

Funeral Dress - Im In Love With Oi - таба, видео

Печатать
Просмотров: 89
Уроки эстрадного вокала в Санкт-Петербурге
I'm In Love With Oi – Funeral Dress
Tabbed by: Taylor Sellers
Email: NoFX@herzeleid.net
Tuning: Standard

Intro Bass
G|-----------------------------------------|
D|-----------------------------------------|x2
A|-------------------------------3-3-------|
E|-1/3--3-3—-1/3--3-3--1/3--3-3------3-3---|

Verse
e|-------------------------------------------|
B|-------------------------------------------|
G|-------------------------------5-5---------|
D|-3/5--5-5--3/5--5-5--3/5--5-5--5-5--5-5----|x2
A|-3/5--5-5--3/5--5-5--3/5--5-5--3-3--5-5----|
E|-1/3--3-3—-1/3--3-3--1/3--3-3-------3-3----|

Chorus
e|-------------------------------------------------------------------------|
B|-------------------------------------------------------------------------|
G|--5-5-5-5-----------5-5-5-5-----------5-5-5-5----------------------------|
D|--5-5-5-5--5-5-5-5--5-5-5-5--5-5-5-5--5-5-5-5--5-5-5-5--3-3-3-3--5-5-5-5-|x2
A|--3-3-3-3--5-5-5-5--3-3-3-3--5-5-5-5--3-3-3-3--5-5-5-5--3-3-3-3--5-5-5-5-|
E|-----------3-3-3-3-----------3-3-3-3-----------3-3-3-3--1-1-1-1--3-3-3-3-|

VERSE
CHORUS
BRIDGE (chorus)
BRIDGE (bass plays chorus)
CHORUS x2
Repeat the F and G when they sing “...And I feel fine, and I feel fine.
Добавлено: 18.05.2012
Другие материалы по этой песне:
  • Аккорды и текст

Страница создана 18.05.2012
http://primanota.ru/funeral-dress/im-in-love-with-oi-chords.htm
Привет, Гость.
Предлагаем пройти революционный курс по гитаре.
Подарок от PrimaNota.Ru, забирай!