PrimaNota.ru - самый крупный в мире бесплатный архив песенных текстов, аккордов, табулатур и нот


Funeral Dress - Free Beer For The Punx - таба, видео

Регистрация Запомнить меня
Войти через:  Facebook Google Twitter Vk Yandex Mail.ru

Funeral Dress - Free Beer For The Punx - таба, видео

Печатать
Просмотров: 98
Song: Free Beer For The Punx
Artist: Funeral Dress

Tabbed By: Taylor
Tuning: Standard

Bass Riff:
G|----------------------------------|
D|----------------------------------|x10
A|---------------3-3-2-2------------|
E|--5-5-5--5-3-5-----------5-3-5-3--|

Main Riff:
e|--------------------------------------|
B|--------------------------------------|
G|-------------------5-5-4-4------------|
D|--7---7----7-5-7---5-5-4-4---7-5-7-5--|x4
A|--7---7----7-5-7---3-3-2-2---7-5-7-5--|
E|--5---5----5-3-5-------------5-3-5-3--|

Bass x5
Main Riff x5

Let This Ring
e|-------|
B|-------|
G|-------|
D|--7~~--|
A|--7~~--|
E|--5~~--|

Fast Bit:
e|----------------------------------------------------------------------|
B|----------------------------------------------------------------------|
G|-----------------------------------------------------5-5-5-5-4-4-4-4--|
D|--7-7-7-7-7-7-7-7--5-5-5-5-5-5-5-5--7-7-7-7-7-7-7-7--5-5-5-5-4-4-4-4--|x6
A|--7-7-7-7-7-7-7-7--5-5-5-5-5-5-5-5--7-7-7-7-7-7-7-7--3-3-3-3-2-2-2-2--|
E|--5-5-5-5-5-5-5-5--3-3-3-3-3-3-3-3--5-5-5-5-5-5-5-5-------------------|

Fast Bit With Palm Muting x2
Bass Riff x3
Main Riff x3
Добавлено: 10.05.2012
Другие материалы по этой песне:

Страница создана 03.04.2012
http://primanota.ru/funeral-dress/free-beer-for-the-punx-chords.htm
Привет, Гость.
Предлагаем пройти революционный курс по гитаре.
Подарок от PrimaNota.Ru, забирай!