PrimaNota.ru - самый крупный в мире бесплатный архив песенных текстов, аккордов, табулатур и нот


Fumiko Orikasa - Hoshi No Hate - таба, видео

Регистрация Запомнить меня
Войти через:  Facebook Google Twitter Vk Yandex Mail.ru

Fumiko Orikasa - Hoshi No Hate - таба, видео

Печатать
Просмотров: 222
This is the song called Hoshi no hate (instrumental version) of the animé "Saikano", 
version performed by Fumiko Orikasa.

< - volume swell (louder)
~ - vibrato
b - bend
pb - pre-bend
r - bend release
h - hammer on
p - pull off
<..> - natural harmonic
= - hold bend
/ - slide into
^ - bend a quarter step up


Listen to the song for the correct timing

e|------------------------------15b(17)-------(17)pb15--15--14--14--12--12---|
B|-----<17~ -----------------------------------------------------------------|
G|---------------------------------------------------------------------------|
D|---------------------------------------------------------------------------|
A|---------------------------------------------------------------------------|
E|---------------------------------------------------------------------------|


e|---------------------------------------------------------------------------|
B|-15b(17)r15~ -----------12h15p0-15b(17)~ ----------(17)pb15p12--15~ -------|
G|---------------------------------------------------------------------------|
D|---------------------------------------------------------------------------|
A|---------------------------------------------------------------------------|
E|---------------------------------------------------------------------------|


e|--------------------------------------------------------------------<12>---|
B|-10b(12)r10p8p7-8--8p7----------------<5>--<7>----------------<12>---------|
G|------------------------9--7--9--<5>------------<7>-----<12>---------------|
D|---------------------------------------------------------------------------|
A|---------------------------------------------------------------------------|
E|---------------------------------------------------------------------------|


e|------------17------17------17---------------------------------------------|
B|---15b(17)=====(17)====(17)----(17)pb15~ ----------------------------------|
G|------------------------------------------------11/12-12----11--12--14--11-|
D|---------------------------------------------------------------------------|
A|---------------------------------------------------------------------------|
E|---------------------------------------------------------------------------|


e|---------------------------------------------------------------------------|
B|---------------------------------------------------------------------------|
G|-----------------------9~ -------9-9/11-11~ ------11h12-12----11--12--14---|
D|----12--12~ ------7/9------------------------------------------------------|
A|---------------------------------------------------------------------------|
E|---------------------------------------------------------------------------|


e|---------------------------------------------------------------------------|
B|---------------------------------------------------------------------------|
G|-14b(16)r14--12--11---12-14-14/16~ ---------------------/12-12----11--12---|
D|---------------------------------------------------------------------------|
A|---------------------------------------------------------------------------|
E|---------------------------------------------------------------------------|


e|----------------------------------------------------------------------------|
B|----------------------------------------------------------------------------|
G|-12/14--11---------------------9~ -----7h9p7h9p7h9p7h9p7h9p7h9p7---9/11-11~-|
D|-------------12--12~ ------/9-----------------------------------------------|
A|----------------------------------------------------------------------------|
E|----------------------------------------------------------------------------|


e|----------------------------------------------------------------------------|
B|----------------------------------------------------------------------------|
G|-------11h12-12----11--12--14--14b(16)r14--12--11~ --12-14-14/16~ --16-16~--|
D|----------------------------------------------------------------------------|
A|----------------------------------------------------------------------------|
E|----------------------------------------------------------------------------|


e|----------------------------------------------------------------------------|
B|-----------------10b(12)r10------------------------------------------10--12-|
G|--/9------9--12--------------12--11---11--12-11~ -----/9------9--12---------|
D|------10---------------------------------------------------10---------------|
A|----------------------------------------------------------------------------|
E|----------------------------------------------------------------------------|


e|---------------------------------------------------------------------------|
B|---12b(13)---12~ ----------------------10b(12)r10--------------------------|
G|------------------------/9------9--12--------------12--11--11-11-12-11~ ---|
D|----------------------------10---------------------------------------------|
A|---------------------------------------------------------------------------|
E|---------------------------------------------------------------------------|


e|----------------------------------------------------------------------------|
B|-----10--10/12~ ----------13b(15)r13--12--10~ ---12--12~ --------13b(15)r13-|
G|-12-------------------------------------------------------------------------|
D|----------------------------------------------------------------------------|
A|----------------------------------------------------------------------------|
E|----------------------------------------------------------------------------|


e|----------------------------------------------------------------------------|
B|--12--10~ ---12--12------------------------15--15~ --------------15-15-15~--|
G|---------------------11--12~ ---------/12----------------/11h12-------------|
D|----------------------------------------------------------------------------|
A|----------------------------------------------------------------------------|
E|----------------------------------------------------------------------------|


e|----------------------------------------------------------------------------|
B|-13b(15)==(15)=(15)----13--11--11----13--11--10~ ------13b(15)r13--12--10~--|
G|----------------------------------------------------------------------------|
D|----------------------------------------------------------------------------|
A|----------------------------------------------------------------------------|
E|----------------------------------------------------------------------------|


e|----------------------------------------------------------------------------|
B|-12-12~ --------13b(15)r13--12--10~ ---12--12/16~ --16--16b(17)-------------|
G|-----------------------------------------------------------------16--14--12-|
D|----------------------------------------------------------------------------|
A|----------------------------------------------------------------------------|
E|----------------------------------------------------------------------------|


e|----------------------------------------------------------------------------|
B|----------------------------------------------------------------------------|
G|-14--16--16/17-17~ ---16--17--17/19~ --16~ ---16--16b(17)16-----------------|
D|------------------------------------------------------------17--19--19b(21--|
A|----------------------------------------------------------------------------|
E|----------------------------------------------------------------------------|


e|----------------------------------------------------------------------------|
B|----------------------------------------------------------13b(15)r13-12-10~-|
G|------------------------------16---17--16b(17)---16~ -----------------------|
D|-19--17--17--19b(20)r19~ ---------------------------------------------------|
A|----------------------------------------------------------------------------|
E|----------------------------------------------------------------------------|


e|----------------------------------------------------------------------------|
B|-12-12----12/17~ -------20--20--19--19--17--17--16--17--17~ ---19---20---22-|
G|----------------------------------------------------------------------------|
D|----------------------------------------------------------------------------|
A|----------------------------------------------------------------------------|
E|----------------------------------------------------------------------------|

				    Slowly release bend while picking several
				    |                                   times

e|--------------------22~ ---------(19)pb17--17~ ---15----13--15--15/17--17~--|
B|-20---22---22b(24)----------------------------------------------------------|
G|----------------------------------------------------------------------------|
D|----------------------------------------------------------------------------|
A|----------------------------------------------------------------------------|
E|----------------------------------------------------------------------------|


e|-/1010101010-17b(19)~ --10101010-17b(19)~ --/1010101010-15-15^r15p12p10-12~-|
B|----------------------------------------------------------------------------|
G|----------------------------------------------------------------------------|
D|----------------------------------------------------------------------------|
A|----------------------------------------------------------------------------|
E|----------------------------------------------------------------------------|


e|-------14-15-14-15-15/17-15-17-19---19-19b(20)r19~ -----/19--20--22--22~ --|
B|-16-17---------------------------------------------------------------------|
G|---------------------------------------------------------------------------|
D|---------------------------------------------------------------------------|
A|---------------------------------------------------------------------------|
E|---------------------------------------------------------------------------|


e|----19--20--22--22~ -----19--20--22--22b(24)-----(24)pb22--22--20--20--19--|
B|---------------------------------------------------------------------------|
G|---------------------------------------------------------------------------|
D|---------------------------------------------------------------------------|
A|---------------------------------------------------------------------------|
E|---------------------------------------------------------------------------|


e|-19--17--17--15---17/19~ --19-19-19~ -|
B|--------------------------------------|
G|--------------------------------------|
D|--------------------------------------|
A|--------------------------------------|
E|--------------------------------------|
Добавлено: 17.04.2012
Другие материалы по этой песне:
  • Аккорды и текст

Страница создана 17.04.2012
http://primanota.ru/fumiko-orikasa/hoshi-no-hate-chords.htm
Привет, Гость.
Предлагаем пройти революционный курс по гитаре.
Подарок от PrimaNota.Ru, забирай!