PrimaNota.ru - самый крупный в мире бесплатный архив песенных текстов, аккордов, табулатур и нот


Fujiya And Miyagi - In One Ear Out The Other - бас-таба, видео

Регистрация Запомнить меня
Войти через:  Facebook Google Twitter Vk Yandex Mail.ru

Fujiya And Miyagi - In One Ear Out The Other - бас-таба, видео

Печатать
Просмотров: 47
Fujiya & Miyagi
In one ear & out the other                            

Theme 1                                                      
       
G|--------------------------|--------------------------|	\
D|--------------------------|--------------------------|	|
A|--3-----3-----3----3-1--1-|--3-----3-----3----3-1--1-|	|
E|--------------------------|--------------------------|	|
								|
								|  8X
 |--------------------------|--------------------------|	|
 |--------------------------|--------------------------|	|
 |--3-----3-----3----3-1--1-|--3-----3-----3----3-6--6-|	|
 |--------------------------|--------------------------|	/


 0:43              
  							                   
|-------------------|-----------------------|
|-------------------|--1-----------3-----3--| 
|-------------------|-----------------------|
|--4----------------|-----------------------|


|----------------------------|
|---------------------1------| 3x 
|---3-----3-----3--1-----1---|
|----------------------------|

0:55              
 						                       
|-------------------|-----------------------|
|-------------------|--1-----------3-----3--|
|-------------------|-----------------------|
|--4----------------|-----------------------|


Theme 1                           
  							   
|-----------------------------------|
|-----------------------------------| 11x
|---3----------3-----3----3-1--1----|
|-----------------------------------|


                               1:25                                      
    
|----------------------------|-------------------|-----------------------|
|----------------------------|-------------------|--1-----------3-----3--|
|--3-----3-----3----3-6--6---|-------------------|-----------------------|
|----------------------------|--4----------------|-----------------------|


Theme 1                                                        
    				        
|-----------------------------------|
|-----------------------------------| 6x
|---3----------3-----3----3-1--1----|
|-----------------------------------|


|----------------------------|
|----------------------------|
|--3-----3-----3----3-6--6---|
|----------------------------|

  1:43                                                                     
  								         
|-------------------|-----------------------|
|-------------------|--1-----------3-----3--|
|-------------------|-----------------------|
|--4----------------|-----------------------|

  1:43                                                                     
  								         
|----------------------------|
|---------------------1------| 4x
|---3-----3-----3--1-----1---|
|----------------------------|

  1:55                                                                       
  									   
|-------------------|-----------------------|
|-------------------|--1-----------3-----3--|
|-------------------|-----------------------|
|--4----------------|-----------------------|


                                                                      
  									   
|------------------------------|
|------------------------------| 8x
|---3-----3-----3----3-1--1----|
|------------------------------|

                     2:15                                       
  							      
|------------------------------|
|------------------------------|
|--3-----3-----3----3-6----6---|
|------------------------------|


|------------------------------|
|------------------------------| 4x
|---3-----3-----3----3-1--1----|
|------------------------------|

                                                    
                  
|----------------------------|
|----------------------------|
|--3-----3-----3----3-6--6---|
|----------------------------|


2:24                        
                  
|---------------------------------------------|-----------------------------|
|---------------------------------------------|-----------------------------| 4x
|---3-----------------------3-----3-----3-----|--3-----3-----3----1-6--1----|
|---------------------------------------------|-----------------------------|

2:42                                      
			       
|-------------------|-----------------------|
|-------------------|--1-----------3-----3--|
|-------------------|-----------------------|
|--4----------------|-----------------------|


Theme 1                                                        
    				     
|-----------------------------------|
|-----------------------------------| 22x  
|---3----------3-----3----3-1--1----|
|-----------------------------------|


|----------------------------|
|----------------------------|
|--3-----3-----3----3-6--6---|
|----------------------------|

  3:33                                       
     
|-------------------|-----------------------||
|-------------------|--1-----------3-----3--||
|-------------------|-----------------------||
|--4----------------|-----------------------||



Добавлено: 05.05.2016
Другие материалы по этой песне:
  • Аккорды и текст

Страница создана 05.05.2016
http://primanota.ru/fujiya-and-miyagi/in-one-ear-out-other-chords.htm
Привет, Гость.
Предлагаем пройти революционный курс по гитаре.
Подарок от PrimaNota.Ru, забирай!