PrimaNota.ru - самый крупный в мире бесплатный архив песенных текстов, аккордов, табулатур и нот


Fujifabric - Tsurezure Monochrome - бас-таба, видео

Регистрация Запомнить меня
Войти через:  Facebook Google Twitter Vk Yandex Mail.ru

Fujifabric - Tsurezure Monochrome - бас-таба, видео

Печатать
Просмотров: 129
-------------------------------------------------------------------------------
                             Tsurezure Monochrome - Fujifabric
-------------------------------------------------------------------------------
Tabbed by: Jack_Grohl
E-mail: inpillform@gmail.com

Fujifabric Official Website: http://www.fujifabric.com/

Tuning: Eb


Intro:

Gb|---------------------------------------------------------------------------|
Db|-------------------------------4h6-----------------------------------------|
Ab|---------------------------4h6---------------------------------------------|
Eb|-5--4--5--4--9-7-5--4------------------------------------------------------|

Verse:

Gb|---------------------------------------------------------------------------|
Db|---------------------------------------------------------------------------|
Ab|-4-4--4-2-------------------4-4--4-2---------------------------------------|
Eb|---------4-2--4-4--4-2-4-2-----------2-3--4-4--4-2-4-2---------------------|x2


Gb|---------------------------------------------------------------------------|
Db|---------------------------------------------------------------------------|
Ab|-------4-6-7-7-7-7---------------------------------------------------------|
Eb|-5-5-5--------------2-4-x-x-x--5-4-x-x-x-----------------------------------|

Prechorus:

Gb|---------------------------------------------------------------------------|
Db|---------------------------------------------------------------------------|
Ab|---------------------------------------------------------------------------|
Eb|-5-5-5-5-5-5-5-5-5-5-5-5-5-5-5-5-0-0-0-0-0-0-0-0-0-0-0-0-0-0-0-0-----------|

Gb|---------------------------------------------------------------------------|
Db|---------------------------------------------------------------------------|
Ab|-2-2-2-2-2-2-2-2-3-3-3-3-3-3-3-3-4-4-4-4-4-4-4-4-5-5-5-5-5-5-5-5-----------|
Eb|---------------------------------------------------------------------------|

Gb|---------------------------------------------------------------------------|
Db|---------------------------------------------------------------------------|
Ab|---------------------------------------------------------------------------|
Eb|-5-5-5-5-5-5-5-5-5-5-5-5-5-5-5-5-4-4-4-4-4-4-4-4-4-4-4-4-4-4-4-4-----------|

Gb|---------------------------------------------------------------------------|
Db|---------------------------------------------------------------------------|
Ab|----------------------------------2-4-2---2---2-2---2----------------------|
Eb|-3-3-3-3-3-3-3-3-2-2-2-2-2-2-2-2--------2---2-----2------------------------|

Chorus:

Gb|---------------------------------------------------------------------------|
Db|---------------------------------------------------------------------------|
Ab|-7-7-7-----------------------------2-2-2-3----2-3-4-4-4-4-2-2-2-2----------|
Eb|-------5---2-4-5-5-5-5-5-5-5-5-5------------2------------------------------|

Gb|---------------------------------------------------------------------------|
Db|---------------------------------------------------------------------------|
Ab|---------------------------------------------------------------------------|
Eb|-5-5-5-5-5-5-5-5-4-5-7-9-9-9-9-5-5-5-4--4-4-4-2-2-2-2-7-7-5-5--------------|

Gb|---------------------------------------------------------------------------|
Db|---------------------------------------------------------------------------|
Ab|-----------------------------------2-2-2-3----2-3-4-4-4-4-2-2-2-2----------|
Eb|-4-4-4-5---2-4-5-5-5-5-5-5-5-5-5------------2------------------------------|


Gb|---------------------------------------------------------------------------|
Db|---------------------------------------------------------------------------|
Ab|---------------------------------------------------------------------------|
Eb|-5-5-5-5-5-5-5-5-4-5-7-9-9-9-9---5--5--7-7-7-------------------------------|

Outro:


Gb|---------------------------------------------------------------------------|
Db|---------------------------------------------------------------------------|
Ab|-4-4--4-2--------------------4-4--4-2-----------------2\-------------------|
Eb|----------4-2--4-4--4-2-4-2-----------4-2--4-4--4-2-4----------------------|


8th March 2013


| /  slide up
| \  slide down
| h  hammer-on
| p  pull-off
| ~  vibrato
| +  harmonic
| x  Mute note
===============================================================================
Добавлено: 07.08.2013
Другие материалы по этой песне:
  • Аккорды и текст

Страница создана 07.08.2013
http://primanota.ru/fujifabric/tsurezure-monochrome-chords.htm
Привет, Гость.
Предлагаем пройти революционный курс по гитаре.
Подарок от PrimaNota.Ru, забирай!