PrimaNota.ru - самый крупный в мире бесплатный архив песенных текстов, аккордов, табулатур и нот


Fugazi - No Surprise - текст песни, таба, видео

Регистрация Запомнить меня
Войти через:  Facebook Google Twitter Vk Yandex Mail.ru

Fugazi - No Surprise - текст песни, таба, видео

Печатать
Просмотров: 142
 INTRO:
            G     G F      G
e|-----------------------------|
B|-----------------------------|
G|-----------------------------|
D|--0-----0--------------------|
A|--0-----0-5-----5\3------2---|
E|----------3-----3\1------3---|

  VERSE:
  1)Hey what's your name?
  Do you feel the same way too?
  Siphon fuel
  Don't make a sound
  And most of all
  Don't let me down
  2)Hey lock eyes
  Shared plan
  No c.i.a.
  Could understand
  Defile Define
  Critique and salve

e|---------3------------------3----------|
B|---------------------------------------|
G|------------0------------------0-------|
D|---2--4--------4----2h4--4-------4-----|
A|-----------------------------------5---|
E|---------------------------------------|

  CHORUS:
  It comes as no surprise
  We're destabilized
           G    G F     G     G#                            E
e|-----------------------------------------------------3/------|
B|-----------------------------------------------------3/------|
G|-2--------------------0----------2h4p2p0-------------4-------|
D|-0-----0--------------0-----6-------------5h7p5/4----5-------|
A|-0-----0-5----5/3-----2-----6---------------------4-------2--|
E|---------3----3/1-----3-----4-----------------------------0--|
                                                            PM

  2ND HALF of SONG:
  No c.i.a.
  No n.s.a.
  No satellite
  Could map our veins

  w/ drums       rhythm, played clean
e|------------  ---------------------------------------|
B|------------  -------------12*-----------------12*---|
G|------------  -----------------------------12*-------|
D|------------  ---------12*------------12*------------|
A|-2-2-2-2-2--  ----12*--------------------------------|
E|-0-0-0-0-0--  -0-------------------------------------|
                    8 = natural harmonics

  Fill 1
e|--16h17--16--12--10-----16h17--16--12--10---16-16h17--16--12--10--10/7--7---|
B|----------------------------------------------------------------------------|cont>

play previous part  



	
	
Добавлено: 26.06.2012
Другие материалы по этой песне:
  • Аккорды и текст

Страница создана 24.04.2012
http://primanota.ru/fugazi/no-surprise-chords.htm
Привет, Гость.
Предлагаем пройти революционный курс по гитаре.
Подарок от PrimaNota.Ru, забирай!