PrimaNota.ru - самый крупный в мире бесплатный архив песенных текстов, аккордов, табулатур и нот


Fugazi - Latin Roots - текст песни, таба, бас-таба, видео

Регистрация Запомнить меня
Войти через:  Facebook Google Twitter Vk Yandex Mail.ru

Fugazi - Latin Roots - текст песни, таба, бас-таба, видео

Печатать
Просмотров: 210
Уроки эстрадного вокала в Санкт-Петербурге
Авторы: Joe Lally, Brendan Canty, Ian MacKaye, Guy Picciotto

Artist: Fugazi
Song: "Latin Roots"
Album: Steady Diet of Nothing (1991)



Standard Tuning



Intro:
Guy Picciotto (Guitar R)
          * pick double time
e|------------------------------------------------||
B|----------------------------13----13\12-12/13-13||
G|-------------0--0--0--------x-----x--x--x--x--x-|| x 6
D|-------------12-12-12(12)---x-----x--x--x--x--x-||
A|----10-10-10----------10~---10----10\9--9-/10-10||
E|------------------------------------------------||
+                                      improvised harmonics
                                     * pick double time
e|------------------------------------------------|
B|-13-#----------------------------------|
G|-x--#----------------------------------|
D|-x--#----------------------------------|
A|-10-#-------------------------------------------|
E|------------------------------------------------|



Intro:
Ian MacKaye (Guitar L)
* comes in after two bars of Guitar R (Guy)
e|------------------------------------------------||
B|------------------------------------------------||
G|------------------------------------------------|| x 4
D|------------------------------------------------||
A|----------------------1-------------------------||
E|----3--3--3--1--3-----------3-------------------||
+
e|------------------------------------------------|
B|------------------------------------------------|
G|------------------------------------------------|
D|-------------------------------------------x/-x\|
A|----1--1--11-1--1-----------------3--3-----3/11\|
E|----------------------1-----1-------------------|



Verse:
Guy
          * pick double time
e|------------------------------------------------||
B|----------------------------13----13\12-12/13-13||
G|-------------0--0--0--------x-----x--x--x--x--x-|| x 4
D|-------------12-12-12(12)---x-----x--x--x--x--x-||
A|----10-10-10----------10~---10----10\9--9-/10-10||
E|------------------------------------------------||
+
                                     * pick double time
e|------------------------------------------------|
B|-13-#----------------------------------|
G|-x--#----------------------------------|
D|-x--#----------------------------------|
A|-10-#-------------------------------------------|
E|------------------------------------------------|
+
e|------------------------------------------------||
B|----------------------------13----13\12-12/13-13||
G|-------------0--0--0--------x-----x--x--x--x--x-|| x 4
D|-------------12-12-12(12)---x-----x--x--x--x--x-||
A|----10-10-10----------10~---10----10\9--9-/10-10||
E|------------------------------------------------||



Verse:
Ian
e|------------------------------------------------||
B|------------------------------------------------||
G|------------------------------------------------|| x 4
D|------------------------------------------------||
A|----------------------1-------------------------||
E|----3--3--3--1--3-----------3-------------------||
+
e|------------------------------------------------|
B|------------------------------------------------|
G|------------------------------------------------|
D|-------------------------------------------x/-x\|
A|----1--1--11-1--1-----------------3--3-----3/11\|
E|----------------------1-----1-------------------|
+
e|------------------------------------------------||
B|------------------------------------------------||
G|------------------------------------------------|| x 4
D|------------------------------------------------||
A|----------------------1-------------------------||
E|----3--3--3--1--3-----------3-------------------||



Pre-Chorus:
Guy
                                           * pick double time
e|------------------------------------------------|
B|-11----11----11----11-11----11-11----11----x--x-|
G|-x-----x-----x-----x--x-----x--x-----x-----x--x-|
D|-x-----x-----x-----x--x-----x--x-----x-----x--x-|
A|-9-----9-----9-----9--9-----9--9-----9-----x--x-|
E|(10)--------------------------------------------|
+
                                           * pick double time
e|------------------------------------------------|
B|-10----10----10----10-10----10-10----10----10---|
G|-x-----x-----x-----x--x-----x--x-----x-----x----|
D|-x-----x-----x-----x--x-----x--x-----x-----x----|
A|-8-----8-----8-----8--8-----8--8-----8-----8----|
E|------------------------------------------------|
+
                                           * pick double time
e|------------------------------------------------|
B|-11----11----11----11-11----11-11----11----x--x-|
G|-x-----x-----x-----x--x-----x--x-----x-----x--x-|
D|-x-----x-----x-----x--x-----x--x-----x-----x--x-|
A|-9-----9-----9-----9--9-----9--9-----9-----x--x-|
E|(10)--------------------------------------------|
+
                                           * pick double time
e|------------------------------------------------|
B|-10----10----10----10-10----10-10----10----10---|
G|-x-----x-----x-----x--x-----x--x-----x-----x----|
D|-x-----x-----x-----x--x-----x--x-----x-----x----|
A|-8-----8-----8-----8--8-----8--8-----8-----8----|
E|------------------------------------------------|



Pre-Chorus:
Ian
e|------------------------------------------------|
B|------------------------------------------------|
G|-7-----7-----7--------7--------7-----7-----x--0-|
D|-7-----7-----7--------7--------7-----7-----x--0-|
A|-5-----5-----5--------5--------5-----5-----x--0-|
E|------------------------------------------------|
+
e|------------------------------------------------|
B|------------------------------------------------|
G|------------------------------------------------|
D|-3-----3-----3--------3--------3-----3-----x--0-|
A|-3-----3-----3--------3--------3-----3-----x--0-|
E|-1-----1-----1--------1--------1-----1-----x--0-|
+
e|------------------------------------------------|
B|------------------------------------------------|
G|-7-----7-----7--------7--------7-----7-----x--0-|
D|-7-----7-----7--------7--------7-----7-----x--0-|
A|-5-----5-----5--------5--------5-----5-----x--0-|
E|------------------------------------------------|
+
e|------------------------------------------------|
B|------------------------------------------------|
G|------------------------------------------------|
D|-3-----3-----3--------3--------3-----3-----x--0-|
A|-3-----3-----3--------3--------3-----3-----x--0-|
E|-1-----1-----1--------1--------1-----1-----x--0-|



Chorus:
Guy
e|------------------------------------------------||
B|------------------------------------------------||
G|-0--0--0--0--0--0--0--0--0--0--0--0--0--0--0--0-|| x 4
D|-12-12-12-12-12-12-12-12-12-12-12-12-12-12-12-12||
A|-10-10-10-10-10-10-10-10-10-10-10-10-10-10-10-10||
E|------------------------------------------------||



Chorus:
Ian
e|------------------------------------------------|
B|------------------------------------------------|
G|------------------------------------------------|
D|------------------------------------------------|
A|------------------------------------------------|
E|-3--3--3--3--3--3--3--3--3--3--3--3--3--3--3--3-|
+
e|------------------------------------------------|
B|------------------------------------------------|
G|------------------------------------------------|
D|------------------------------------------------|
A|-5--5--5--5--5--5--5--5--5-/8--8--8--8--8--8--8-|
E|------------------------------------------------|
+
e|------------------------------------------------|
B|------------------------------------------------|
G|------------------------------------------------|
D|------------------------------------------------|
A|------------------------------------------------|
E|-3--3--3--3--3--3--3--3--3--3--3--3--3--3--3--3-|
+
e|------------------------------------------------|
B|------------------------------------------------|
G|------------------------------------------------|
D|------------------------------------------------|
A|-5--5--5--5--5--5--5--5--5-/8--8--8--8--8--8--8-|
E|------------------------------------------------|



Second Verse Intro Fill (improvised harmonic noise):
Guy
                            * pick double time
e|------------------------------------------|
B|----------------------------x--0--0~------|
G|----------------------------x--0--0~------|
D|------------------------------------------------|
A|------------------------------------------------|
E|------------------------------------------------|
+
                            * pick double time
e|------------------------------------------------|
B|---------------------------------------|
G|---------------------------------------|
D|----------------------------x\---------|
A|----------------------------------------x\-x/---|
E|------------------------------------------------|



Second Verse Intro:
Ian
e|------------------------------------------------|
B|------------------------------------------------|
G|-------------------------------------xx-0-------|
D|-------------------------------------xx---------|
A|----------------------1-------------------------|
E|----3--3--3--1--3-----------3-------------------|
+
e|------------------------------------------------|
B|----------------------------------x--x--x--x--x-|
G|----------------------------------x--x--x--x--x-|
D|----------------------------------x--x--x--x--x-|
A|----------------------1-------------------------|
E|----3--3--3--1--3-----------3-------------------|



Interlude:
Guy
e|------------------------------------------------|
B|------------------------------------------------|
G|------------------------------------------------|
D|<5>---------------------------------------------|
A|------------------------------------------------|
E|------------------------------------------------|
+
e|------------------------------------------------|
B|------------------------------------------------|
G|<5>---------------------------------------------|
D|------------------------------------------------|
A|------------------------------------------------|
E|------------------------------------------------|
+
e|------------------------------------------------|
B|------------------------------------------------|
G|------------------------------------------------|
D|<5>---------------------------------------------|
A|------------------------------------------------|
E|------------------------------------------------|
+
e|------------------------------------------------|
B|------------------------------------------------|
G|<5>---------------------------------------------|
D|------------------------------------------------|
A|-------------------------------------x\----x\---|
E|------------------------------------------------|



Interlude:
Ian
e|------------------------------------------------|
B|------------------------------------------------|
G|------------------------------------------------|
D|-5----------------------------------------------|
A|-5----------------------------------------------|
E|-3----------------------------------------------|
+
e|------------------------------------------------|
B|------------------------------------------------|
G|------------------------------------------------|
D|------------------------------------------------|
A|/5~---------------------------------------------|
E|------------------------------------------------|
+
e|------------------------------------------------|
B|------------------------------------------------|
G|<5>---------------------------------------------|
D|------------------------------------------------|
A|------------------------------------------------|
E|------------------------------------------------|
+
e|------------------------------------------------|
B|------------------------------------------------|
G|------------------------------------------------|
D|<5>---------------------------------------------|
A|-------------------------x\----------------x\---|
E|------------------------------------------------|



Coda:
Guy
e|------------------------------------------------||
B|------------------------------------------------||
G|-------------------------7----------------------|| x 14
D|-------------9-----------------------9-----7----||
A|-7----------------------------------------------||
E|------------------------------------------------||
+
e|------------------------------------------------|
B|------------------------------------------------|
G|------------------------------------------------|
D|------------------------------------------------|
A|-7\---------------------------------------------|
E|------------------------------------------------|



Coda:
Ian
e|------------------------------------------------|
B|------------------------------------------------|
G|------------------------------------------------|
D|-7--7--7--7--7--7--7--7--7--7--7--7--7--7--7--7-|
A|-7--7--7--7--7--7--7--7--7--7--7--7--7--7--7--7-|
E|-5--5--5--5--5--5--5--5--5--5--5--5--5--5--5--5-|
+
e|------------------------------------------------|
B|------------------------------------------------|
G|------------------------------------------------|
D|-2--2--2--2--2--2--2--2--2--2--2--2--2--2--2--2-|
A|-2--2--2--2--2--2--2--2--2--2--2--2--2--2--2--2-|
E|-0--0--0--0--0--0--0--0--0--0--0--0--0--0--0--0-|



Song Structure:

Guy:
Intro
Verse
Pre-Chorus
Chorus
Second Verse Intro Fill
Verse
Pre-Chorus
Chorus
Interlude
Coda

Ian:
Intro
Verse
Pre-Chorus
Chorus
Second Verse Intro
Verse
Pre-Chorus
Chorus
Interlude
Coda x 4
Drop Out x 1
Coda x 2



That's it.  Please leave any comments, questions, or requests.  Cheers!
-Bennyshambles78-


Добавлено: 04.07.2014
Другие материалы по этой песне:
  • Аккорды и текст

Страница создана 10.04.2012
http://primanota.ru/fugazi/latin-roots-chords.htm
Привет, Гость.
Предлагаем пройти революционный курс по гитаре.
Подарок от PrimaNota.Ru, забирай!