PrimaNota.ru - самый крупный в мире бесплатный архив песенных текстов, аккордов, табулатур и нот


Fugazi - Guilford Fall - текст песни, таба, видео

Регистрация Запомнить меня
Войти через:  Facebook Google Twitter Vk Yandex Mail.ru

Fugazi - Guilford Fall - текст песни, таба, видео

Печатать
Просмотров: 132
Уроки эстрадного вокала в Санкт-Петербурге
Авторы музыки: Joe Lally, Brendan Canty, Ian MacKaye, Guy Picciotto

00:00 - 00:18)
e|--------------------------------------|
b|-------3^-----------------------------|
g|-------3^-----------------------------|
d|--5-5-----5-5--x-x-x-x----------------|
a|--5-5-----5-5--x-x-x-x----repeat------|
e|--3-3-----3-3--x-x-x-x----------------|

(00:18 - 00:21)
e|--------------------------------------|
b|--------------------------------------|
g|--------------------------------------|
d|--5-5--x-x-x-x--5-5--x-x-x-x----------|
a|--5-5--x-x-x-x--5-5--x-x-x-x----------|
e|--3-3--x-x-x-x--3-3--x-x-x-x----------|

(00:21 - 00:35) Down at.......little recieved
e|--------------------------------------|
b|--------------------------------------|
g|-0-0-0-0-0-0-0-0----------------------|
d|-5-5-5-5-5-5-5-5--repeat--------------|
a|--------------------------------------|
e|--------------------------------------|

(00:35 - 00:42) |-Not Sure about this bit------------------------|
e|---------------------------------|--------------------------|--|
b|-------------3^--------------3^--|----------3^-3^-3^-3^-----|--|
g|-------------3^--------------3^--|----------3^-3^-3^-3^-----|--|
d|-5-5---5-5-5-----5-5---5-5-5-----|--5-----------------------|--|
a|-5-5---5-5-5-----5-5---5-5-5-----|--5-----------------------|--|
e|-3-3---3-3-3-----3-3---3-3-3-----|--3-----------------------|--|

(00:42 - 00:53) Fractured appetite.....gone tight
e|--------0-3~~~--6-6--3-3-3-3-----------|
b|---------------------------------------|
g|--3-4-5--------------------------------|repeat
d|---------------------------------------|
a|---------------------------------------|
e|---------------------------------------|

(00:53 - 00:58) and your lips......and grey
e|--------------------------------------|
b|--------------------------------------|
g|---7-7-7-7-7-7-7-7-6-6-6-6-5-5-5-5----|
d|---7-7-7-7-7-7-7-7-6-6-6-6-5-5-5-5----|
a|---5-5-5-5-5-5-5-5-4-4-4-4-3-3-3-3----|
e|--------------------------------------|

(00:58 - 01:01)
e|--------------------------------------|
b|--------------------------------------|
g|--0-0-0-0-0-0-0-0---------------------|
d|--5-5-5-5-5-5-5-5---repaet------------|
a|--------------------------------------|
e|--------------------------------------|

(01:01 - 01:07)
e|--------------------------------------|
b|--------------------------------------|
g|--------------------------------------|
d|---x-x-x-x------x-x-x-x---------------|
a|---x-x-x-x------x-x-x-x-----repeat----|
e|---x-x-x-x------x-x-x-x---------------|

(01:07 - 01:19) crash your.......mantra derail
e|-------0-3~~~--6-6--3-3-3-3-----------|
b|--------------------------------------|
g|--3-4-5----------------------repeat---|
d|--------------------------------------|
a|--------------------------------------|
e|--------------------------------------|

(01:19 - 01:23) the train the train derail the train
e|--------------------------------------|
b|--------------------------------------|
g|---7-7-7-7-7-7-7-7-6-6-6-6-5-5-5-5----|
d|---7-7-7-7-7-7-7-7-6-6-6-6-5-5-5-5----|
a|---5-5-5-5-5-5-5-5-4-4-4-4-3-3-3-3----|
e|--------------------------------------|

(01:23 - 01:27)
e|--------------------------------------|
b|--------------------------------------|
g|--0-0-0-0-0-0-0-0---------------------|
d|--5-5-5-5-5-5-5-5-repeat--------------|
a|--------------------------------------|
e|--------------------------------------|

(01:27 - 01:37) take the.......in your mouth
e|--------------------------------------|
b|--------------------------------------|
g|--------------------------------------|
d|----Not Sure--------------------------|
a|--------------------------------------|
e|--------------------------------------|

(01:37 - 01:52)
e|--------------------------------------|
b|--------------------------------------|
g|--7-7-7-7-7-7-7-7---------------------|
d|--0-0-0-0-0-0-0-0--repeat-------------|
a|--5-5-5-5-5-5-5-5---------------------|
e|--------------------------------------|

(01:52 - 02:00)
e|-10--9--8--8--8--8---10--9--7--7--7--7-|
b|---------------------------------------|
g|---------------------------------------|
d|---------------------------------------|
a|---------------------------------------|
e|---------------------------------------|

(02:00 - 02:22)
e|---10---9---8---8---8---8--------------|
b|---------------------------------------|
g|-7----7---7---7---7---7----------------|
d|---------------------------------------|
a|---------------------------------------|
e|---------------------------------------|

(02:22 - 02:57)
e|---------------------------------------|
b|---------------------------------------|
g|--Not-Sure-----------------------------|
d|---------------------------------------|
a|---------------------------------------|
e|---------------------------------------|
Добавлено: 28.02.2012
Другие материалы по этой песне:
  • Аккорды и текст

Страница создана 28.02.2012
http://primanota.ru/fugazi/guilford-fall-chords.htm
Привет, Гость.
Предлагаем пройти революционный курс по гитаре.
Подарок от PrimaNota.Ru, забирай!