PrimaNota.ru - самый крупный в мире бесплатный архив песенных текстов, аккордов, табулатур и нот


Fugazi - Break-in - текст песни, таба, видео

Регистрация Запомнить меня
Войти через:  Facebook Google Twitter Vk Yandex Mail.ru

Fugazi - Break-in - текст песни, таба, видео

Печатать
Просмотров: 153
Авторы: Joe Lally, Brendan Canty, Ian MacKaye, Guy Picciotto

1. Opening/Verse

e----x--x--x--x--x--x-x-x-x-x-x-x-|
b----x--x--x--x--x--x-x-x-x-x-x-x-|
g----4--4--4--4--4--x-x-x-x-x-2-2-|
d----4--4--4--4--4--x-x-x-x-x-2-2-|
a----2--2--0--2--2--0-4-4-4-4-0-0-|
e----x--x--x--x--x--x-2-2-2-2-x-x-| rinse, repeat

2. ...come inside...(...deep inside...)
(palm muted)

e----x--x--x--x--x--x--x--x--x--x-|
b----x--x--x--x--x--x--x--x--x--x-|
g----x--x--x--x--x--x--x--x--x--x-|
d----4--4--0--x--x--x--3--3--3--0-|
a----2--2--0--5--5--0--1--1--1--0-|
e----x--x--x--3--3--0--x--x--x--x-|

Repeat 1. Verse

Repeat 2. ...come inside...(deep insiiiyeeiiiyeeiiiiide)

3. Break-In...Break-In # 1

e----x----x---x-|
b----x----x---x-|
g----4----4---5-|
d----4----4---5-|
a----2----2---3-|
e----x----x---x-| x 2

then
4. (palm muted)

e----x--x--x--x--x--x-|
b----x--x--x--x--x--x-|
g----4--4--4--4--4--4-|
d----4--4--4--4--4--4-|
a----2--2--2--0--0--0-|
e----x--x--x--x--x--x-|.. cap off with the D chord
(if you listen to it, you'll get the rhythm of this)

5. bridge (anyone whose seen my money will it cover for me?)

e----x--x--x--x-|
b----x--x--x--x-|
g----7--x--x--8-|
d----7--5--6--8-|
a----5--5--6--6-|
e----x--3--4--x-| repeat

then
6. Break-In...Break-In # 2

e----x--x--x--x--x-----|
b----x--x--x--x--x-----|
g----4--4--2--4--5-----|
d----4--4--2--4--5-----|
a----2--2--0--2--3-----|
e----x--x--x--x--x x 2-|

Repeat 4. (except no palm muting)

Repeat 5. bridge

She's a Covering...

thanks, hope you like...
Добавлено: 29.05.2012
Другие материалы по этой песне:
  • Аккорды и текст

Страница создана 29.05.2012
http://primanota.ru/fugazi/break-in-chords.htm
Привет, Гость.
Предлагаем пройти революционный курс по гитаре.
Подарок от PrimaNota.Ru, забирай!