PrimaNota.ru - самый крупный в мире бесплатный архив песенных текстов, аккордов, табулатур и нот


Fuel - New Thing - текст песни, таба, видео

Регистрация Запомнить меня
Войти через:  Facebook Google Twitter Vk Yandex Mail.ru

Fuel - New Thing - текст песни, таба, видео

Печатать
Просмотров: 97
Авторы музыки: Carl Bell
Авторы текста: Carl Bell
*This is my own interpretation of this song*

Fuel, "New thing" - Sunburn

tabbed by Richard Jennings.

Corrections, Suggestions, Requests email me:

ric_jennings@yahoo.co.uk

or IM me:
targetyourhatred@hotmail.com

drop D tuning for rhythm

s - slide
b - bend

play:

Intro,Verse x2, Bridge ,Chorus x2 ,Bridge2 ,
Verse (lead part1 rhythm part2),Verse,Bridge,
Chorus,Bridge2,Bridge3,Bridge4 x2, Bridge,
Chorusx4, Bridge4 x 2


Intro. (*distortion*)

e-|----------------------------------------|
B-|----------------------------------------|
G-|----------------------------------------|
D-|--7----5--3----10----5----8 ..---10--11-|
A-|--7----5--3----10----5----8 ..---10--11-|
D-|--7----5--3----10----5----8 ..---10--11-|





Verse. REPEAT TWICE


Lead guitar  part1 (*delay echo thing*) :p

e-|------------------|-----------------|----------------|---------------|
B-|------------------|-----------------|------------7---|---------------|
G-|---------5-----7--|-----------------|------5---------|---------------|
D-|---5-s7-----7-----|-----------------|---7-----7------|---------------|
A-|------------------|-----------------|----------------|---------------|
E-|------------------|-----------------|----------------|---------------|

Rhythm  part1  (*distortion*)

e-|------------------|-----------------|----------------|---------------|
B-|------------------|-----------------|----------------|---------------|
G-|------------------|-----------------|----------------|---------------|
D-|------------------|---0000----------|----------------|-0-00-00--3b3b-|
A-|------------------|---0000----------|----------------|-0-00-00--3b3b-|
D-|------------------|---0000----------|----------------|-0-00-00--3b3b-|
                                                      
        




Lead Guitar part2 (*delay echo thing*) 

e-|------------------|-----------------|----------------|---------------|
B-|------------------|-----------------|------------7---|---------------|
G-|-------5-----7----|-----------------|------5---------|---------------|
D-|---7------7-------|-----------------|---7-----7------|---------------|
A-|------------------|-----------------|----------------|---------------|
E-|------------------|-----------------|----------------|---------------|

Rhythm  part2   (*distortion*) 
                                                      
                      
e-|------------------|-----------------|----------------|---------------|
B-|------------------|-----------------|----------------|---------------|
G-|------------------|-----------------|----------------|---------------|
D-|------------------|---0000----------|----------------|-0-00-00-0--5s0|
A-|------------------|---0000----------|----------------|-0-00-00-0--5s0|
D-|------------------|---0000----------|----------------|-0-00-00-0--5s0|

                                                      
     2nd time 
                                                     
e-|---------------|
                                                     
B-|---------------| 
                                                     
G-|---------------|
                                                     
D-|---0-00-00-00--|
                                                     
A-|---0-00-00-00--|
                                                     
D-|---0-00-00-00--|
Bridge...   (*distortion*) 


e-|------------------|-----------------|
B-|------------------|-----------------|
G-|------------------|-----------------|
D-|--8-88---10--5----|--8-88---10--11--|
A-|--8-88---10--5----|--8-88---10--11--|
D-|--8-88---10--5----|--8-88---10--11--|



Chorus...  (*distortion*) 

                             
e-|------------------|----------------|------------------|--------------|
B-|------------------|----------------|------------------|--------------|
G-|------------------|----------------|------------------|--------------|
D-|0-12-12-12-10-9-7-|---00-0-4-5-7---|0-12-12-12-10-9-7-|--00-0-5-4-2--|
A-|0-12-12-12-10-9-7-|---00-0-4-5-7---|0-12-12-12-10-9-7-|--00-0-5-4-2--|
D-|0-12-12-12-10-9-7-|---00-0-4-5-7---|0-12-12-12-10-9-7-|--00-0-5-4-2--|


Bridge2...  (*distortion*) 

e-|-------------------|
B-|-------------------|
G-|-------------------|
D-|--8-88---10--11----|
A-|--8-88---10--11----|
D-|--8-88---10--11----|



Bridge3...  (*distortion*) 

(*clean*)   (up stroke)
 
e-|-------  -------
B-|-------  -------
G-|---7---  ---7---   x3
D-|---7---  ---7---
A-|---5---  ---5---
D-|---3---  ---5--- 

Bridge 4  (*distortion*) 

e-|----------------------------------|-----------------------------------
B-|----------------------------------|-----------------------------------
G-|----------------------------------|-----------------------------------
D-|-3-00-3-0-0--5-6---3-00-3-0-0-6-5-|-3-00-3-0-0--5-6---3-00-3-0-0-6-5-3
A-|-3-00-3-0-0--5-6---3-00-3-0-0-6-5-|-3-00-3-0-0--5-6---3-00-3-0-0-6-5-3
D-|-3-00-3-0-0--5-6---3-00-3-0-0-6-5-|-3-00-3-0-0--5-6---3-00-3-0-0-6-5-3
     
Добавлено: 05.08.2013
Другие материалы по этой песне:

Страница создана 26.04.2012
http://primanota.ru/fuel/new-thing-chords.htm
Привет, Гость.
Предлагаем пройти революционный курс по гитаре.
Подарок от PrimaNota.Ru, забирай!