PrimaNota.ru - самый крупный в мире бесплатный архив песенных текстов, аккордов, табулатур и нот


Fuel - Forever - текст песни, таба, видео

Регистрация Запомнить меня
Войти через:  Facebook Google Twitter Vk Yandex Mail.ru

Fuel - Forever - текст песни, таба, видео

Печатать
Просмотров: 104
Tabbed & Arranged by: Josh Daley

Tuning: D A D G B E



Verse:

------------------|
------------------|
------------------|
--7-7-7-7-x-x-x-x-|
--5-5-5-5-5-5-5-5-|
--x-x-x-0-5-5-5-5-|



Pre-chorus:

--------------------|
--------------------|
--------------------|
--x-x-x-x-x-x-x-x---|
--7-7-7-7-7-4-4-4/5-|
--7-7-7-7-7-4-4-4/5-|



Chorus:

---------------0------------------------|
-----------0---3--3---------------------|
--7---7-4--4---2--4---------------------|
--7---7-4--5---0--4---------------------|
--5---4-2--5---0--2--4-4-4--4-5-7-4-5-7-|
---------------0-----4-4-4--4-5-7-4-5-7-|



Bridge:

--------------------------------------------------------|
--------------------------------------------------------|
--------------------------------------------------------|
--2-2-2-2-4-4-4-4-5-5-5-5-------------------------------|
--0-0-0-0-2-2-2-2-3-3-3-3-5-4-0-5--4---5-4-0-5--4--0----|
--------------------------5-4-0-5--4---5-4-0-5--4--0----|
                                                   Let Ring


Solo:

------------------------------------------------------------------|
------------------------------------------------------------------|
------------------------------------------------------------------|
------------------------------------------------------------------|
--0-0-x-0-0-x-0-0-x-0-0-x-0-0-x-0-0-x-0-0-x-0-0-x-----------------|
--0-0-x-0-0-x-0-0-x-0-0-x-0-0-x-0-0-x-0-0-x-0-0-x-5-4-0-5-4-0-5-4-|

------------------------------------------------------------------|
------------------------------------------------------------------|
------------------------------------------------------------------|
------------------------------------------------------------------|
--0-0-x-0-0-x-0-0-x-0-0-x-0-0-x-0-0-x-0-0-x-0-0-0-0-0-x-----------|
--0-0-x-0-0-x-0-0-x-0-0-x-0-0-x-0-0-x-0-0-x-0-0-0-0-0-x-----------|



Outro:

------------------------------------|
------------------------------------|
------------------------------------| x3
------------------------------------|
--5-5-5-5-7-7-7-7-9-9-9-9-5-5-5-5-5-|
--5-5-5-5-7-7-7-7-9-9-9-9-5-5-5-5-5-|

----------------------------------------|
----------------------------------------|
-----------------------------------7----|
-----------------------------------7----|
--5-5-5-5-7-7-7-7-9-9-9-9-5--------5----|
--5-5-5-5-7-7-7-7-9-9-9-9-9-7-5-0--0----|
                                   Let Ring
Добавлено: 04.11.2013
Другие материалы по этой песне:
  • Аккорды и текст

Страница создана 04.11.2013
http://primanota.ru/fuel/forever-chords.htm
Привет, Гость.
Предлагаем пройти революционный курс по гитаре.
Подарок от PrimaNota.Ru, забирай!