PrimaNota.ru - самый крупный в мире бесплатный архив песенных текстов, аккордов, табулатур и нот


Fuckin Faces - Unzufriedenheit Ttet - таба

Регистрация Запомнить меня
Войти через:  Facebook Google Twitter Vk Yandex Mail.ru

Fuckin Faces - Unzufriedenheit Ttet - таба

Печатать
Просмотров: 82
Intro
E||------------------------------------------|
B||------------------------------------------|
G||------------------------------------------|
D||------------------------------------------|
A||--(5)--(5)--(5)--(5)--(5)--(5)--(5)--(5)--|
E||------------------------------------------|

----------------------------------|------------------------------------------|
----------------------------------|------------------------------------------|
--7------------7------------7--7--|------------------------------------------|
--7------------7------------------|------------------------------------------|
--5--(5)--(5)--5--(5)--(5)--------|--(5)--(5)--(5)--(5)--(5)--(5)--(5)--(5)--|
----------------------------------|------------------------------------------|

------------------------------------------|--------------------------------|
------------------------------------------|--------------------------------|
------------------------------------------|--------------------------------|
------------------------------------------|--5------------5-------5--5--5--|
------------------------------------------|--5------------5-------5--5--5--|
--(3)--(3)--(3)--(3)--(3)--(3)--(3)--(3)--|--3--(3)--(3)--3--(3)--3--3--3--|


-------------------|-------------------|-------------------|------------------|
-------------------|-------------------|-------------------|------------------|
-------------------|-------------------|-------------------|------------------|
--2----------------|-------------------|--5----------------|------------------|
--2----------------|-------------------|--5----------------|------------------|
--0----------------|-------------------|--3----------------|------------------|


-------------------|-------------------|-------------------|------------------|
-------------------|-------------------|-------------------|------------------|
-------------------|-------------------|-------------------|------------------|
--2----------------|-------------------|--5----------------|--7---------------|
--2----------------|-------------------|--5----------------|--7---------------|
--0----------------|-------------------|--3----------------|--5---------------|

Strophe
-----------------------|------------------------|-----------------------|
-----------------------|------------------------|-----------------------|
-----------------------|------------------------|-----------------------|
--7----7----7--7--7----|------------------------|--7----7----7--7--7----|
--5----5----5--5--5----|--5----7--7----7--7--7--|--5----5----5--5--5----|
-----------------------|--3----5--5----5--5--5--|-----------------------|

------------------------|-----------------------|------------------------|
------------------------|-----------------------|------------------------|
------------------------|-----------------------|------------------------|
------------------------|--7----7----7--7--7----|------------------------|
--5----7--7----7--7--7--|--5----5----5--5--5----|--5----7--7----7--7--7--|
--3----5--5----5--5--5--|-----------------------|--3----5--5----5--5--5--|

-----------------------|------------------------|
-----------------------|------------------------|
-----------------------|------------------------|
--7----7----7--7--7----|------------------------|
--5----5----5--5--5----|--5----7--7----7--7--7--|
-----------------------|--3----5--5----5--5--5--|

Refrain

----------------------|----------------------|----------------------|
----------------------|----------------------|----------------------|
--9----9----9----9----|--9----9----9----9----|----------------------|
--9----9----9----9----|--9----9----9----9----|--9----9----9----9----|
--7----7----7----7----|--7----7----7----7----|--9----9----9----9----|
----------------------|----------------------|--7----7----7----7----|

----------------------|--------------------------|--------------------------|
----------------------|--------------------------|--------------------------|
----------------------|--------------------------|--------------------------|
--9----9----9----9----|--11----11----11----11----|--11----11----11----11----|
--9----9----9----9----|--11----11----11----11----|--11----11----11----11----|
--7----7----7----7----|---9-----9-----9-----9----|---9-----9-----9-----9----|


----------------------|----------------------|
----------------------|----------------------|
----------------------|----------------------|
--7----7----7----7----|--7----7----7----7----|
--7----7----7----7----|--7----7----7----7----|
--5----5----5----5----|--5----5----5----5----|


http://www.myspace.com/fuckinfacespage
Добавлено: 12.06.2012
Другие материалы по этой песне:

Страница создана 25.02.2012
http://primanota.ru/fuckin-faces/unzufriedenheit-ttet-chords.htm
Привет, Гость.
Предлагаем пройти революционный курс по гитаре.
Подарок от PrimaNota.Ru, забирай!