PrimaNota.ru - самый крупный в мире бесплатный архив песенных текстов, аккордов, табулатур и нот


Fucked Up - Police - таба, видео

Регистрация Запомнить меня
Войти через:  Facebook Google Twitter Vk Yandex Mail.ru

Fucked Up - Police - таба, видео

Печатать
Просмотров: 112
Fucked Up- Police

standard tuning EADGBe

intro
e|---------------------------|
B|---------------------------|
G|---------------------------|
D|---------------------------|
A|-12-9-9-9-9-9-12-9-9-9-9-9-|
E|---------------------------|x4
pm==========================|

2nd guitar enters
|---------------------------|  |---------------------------|
|---------------------------|  |---------------------------|
|---------------------------|  |---------------------------|
|-99------------------------|  |999999999999999999999999999|
|-99------------------------|  |999999999999999999999999999|
|-77------------------------|x4|777777777777777777777777777|x4

verse riff (both guitars)
e|---------------------------|
B|---------------------------|
G|---------------------------| 
D|999912-12-999912-12--------|
A|999912-12-999912-12--------|
E|777710-10-777710-10--------|

variations on this come up occasionally
e|---------------------------|
B|-7--5-5--7--5-5--7-5-5-----|
G|---------------------------|
D|---------------------------|
A|---------------------------|
E|---------------------------|
slight bend on the string

chorus riff
e|---------------------------||---------------------------|
B|---------------------------||---------------------------|
G|-9-999---------------------||---------------------------|
D|-9-9999--9-9-9-9-9-9-9-9-9-||-12-121212--9-9-9-9-9-9-9-9|
A|-7-7779--9-9-9-9-9-9-9-9-9-||-12-121212--9-9-9-9-9-9-9-9|
E|------7--7-7-7-7-7-7-7-7-7-||-10-101010--7-7-7-7-7-7-7-7|

solo is basically just a variation on the intro riff

ending
e|---------------------------|
B|---------------------------|
G|---------------------------|
D|999999999999999999999999999|
A|999999999999999999999999999|
E|777777777777777777777777777|

************************************

| /   slide up
| \   slide down
| h   hammer-on
| p   pull-off
| ~   vibrato
| +   harmonic
| x   Mute note
| b   Bend
| pb  Pre-bend
| br  Bend release
| pbr Pre-bend release
| brb Bend release bend

************************************
Добавлено: 25.07.2015
Вам также может быть интересно:
Другие материалы по этой песне:
  • Аккорды и текст

Страница создана 25.07.2015
http://primanota.ru/fucked-up/police-chords.htm
Привет, Гость.
Предлагаем пройти революционный курс по гитаре.
Подарок от PrimaNota.Ru, забирай!