PrimaNota.ru - самый крупный в мире бесплатный архив песенных текстов, аккордов, табулатур и нот


Fucked Up - A Little Death - таба, видео

Регистрация Запомнить меня
Войти через:  Facebook Google Twitter Vk Yandex Mail.ru

Fucked Up - A Little Death - таба, видео

Печатать
Просмотров: 43
Fucked Up
"A Little Death"
From the album "David Comes to Life" (2010)

Standard Tuning
Tempo = 163 bpm

 Intro (w/delay set to high feedback)
|----------|---------4-------|-----4-----------|-4-----------4---| 
|----------|---4-5-7-------4-|-5-7-------4-5-7-|-------4-5-7-----|
|--------4-|-6---------4-6---|-------4-6-------|---4-6---------4-| repeat
|----------|-----------------|-----------------|-----------------|
|----------|-----------------|-----------------|-----------------|
|----------|-----------------|-----------------|-----------------|

 Main Riff
|------------||------------------|------------------||
|------------||o-----------------|-----------------o||
|-------11-9-||--9--9-9-9-9-11-9-|-9-9--------11-9--||
|-------11-9-||--9--9-9-9-9-11-9-|-9-9---9--9-11-9--||
|--------9-7-||o-7--7-7-7-7--9-7-|-7-7---9--9--9-7-o||
|------------||------------------|-----x-7--7-------||

 Verses
|------------|----------------|------------|----------------|
|------------|----------------|------------|----------------|
|------------|-9--9-9-9-9-9-9-|------11----|-9--9-9-9-9-9-9-|
|-11----6----|-9--9-9-9-9-9-9-|-9----11----|-9--9-9-9-9-9-9-|
|-11----6----|-7--7-7-7-7-7-7-|-9-----9----|-7--7-7-7-7-7-7-|
|--9----4----|----------------|-7----------|----------------|

 Chorus
|-7--7-7-7-7-7-7-|-5--5-5-5-5-5-5-|-4--4-4-4-4-4-4-|-5--5-5-5-5-5-5-|
|-7--7-7-7-7-7-7-|-5--5-5-5-5-5-5-|-4--4-4-4-4-4-4-|-5--5-5-5-5-5-5-|
|-8--8-8-8-8-8-8-|-6--6-6-6-6-6-6-|-4--4-4-4-4-4-4-|-6--6-6-6-6-6-6-|
|-9--9-9-9-9-9-9-|-7--7-7-7-7-7-7-|-6--6-6-6-6-6-6-|-7--7-7-7-7-7-7-|
|-9--9-9-9-9-9-9-|-7--7-7-7-7-7-7-|-6--6-6-6-6-6-6-|-7--7-7-7-7-7-7-|
|-7--7-7-7-7-7-7-|-5--5-5-5-5-5-5-|-4--4-4-4-4-4-4-|-5--5-5-5-5-5-5-|


|-7--7-7-7-7-7-7-|-5--5-5-5-5-5-5-|-4--4-4-4-4-4-4-|-0-----------|
|-7--7-7-7-7-7-7-|-5--5-5-5-5-5-5-|-4--4-4-4-4-4-4-|-0-----------|
|-8--8-8-8-8-8-8-|-6--6-6-6-6-6-6-|-4--4-4-4-4-4-4-|-1------11-9-|
|-9--9-9-9-9-9-9-|-7--7-7-7-7-7-7-|-6--6-6-6-6-6-6-|-2------11-9-|
|-9--9-9-9-9-9-9-|-7--7-7-7-7-7-7-|-6--6-6-6-6-6-6-|-2-------9-7-|
|-7--7-7-7-7-7-7-|-5--5-5-5-5-5-5-|-4--4-4-4-4-4-4-|-0-----------|

 Bridge (quiet lead guitar)
|-------4-7-------|-------4-7-------|-------4-7-------|-------4-7-------|
|---5-7-----------|---5-7-----------|---5-7-----------|---5-7-----------|
|-6---------------|-6---------------|-6---------------|-6---------------|
|-----------------|-----------------|-----------------|-----------------|
|-----------------|-----------------|-----------------|-----------------|
|-----------------|-----------------|-----------------|-----------------|
|
|-----------------|-----------------|-----------------|-----------------|
|-9-9-9-9-9-9-9-9-|-9-9-9-9-9-9-9-9-|-9-9-9-9-9-9-9-9-|-9-9-9-9-9-9-9-9-|
|-9-9-9-9-9-9-9-9-|-9-9-9-9-9-9-9-9-|-9-9-9-9-9-9-9-9-|-9-9-9-9-9-9-9-9-|
|-9-9-9-9-9-9-9-9-|-9-9-9-9-9-9-9-9-|-9-9-9-9-9-9-9-9-|-9-9-9-9-9-9-9-9-|
|-7-7-7-7-7-7-7-7-|-7-7-7-7-7-7-7-7-|-7-7-7-7-7-7-7-7-|-7-7-7-7-7-7-7-7-|
|-----------------|-----------------|-----------------|-----------------|


|-------2-5-------|-------2-5-------|-------2-5-------|-------2-5-------|
|---3-5-----------|---3-5-----------|---3-5-----------|---3-5-----------|
|-4---------------|-4---------------|-4---------------|-4---------------|
|-----------------|-----------------|-----------------|-----------------|
|-----------------|-----------------|-----------------|-----------------|
|-----------------|-----------------|-----------------|-----------------|
|
|-----------------|-----------------|-----------------|-----------------|
|-7-7-7-7-7-7-7-7-|-7-7-7-7-7-7-7-7-|-7-7-7-7-7-7-7-7-|-7-7-7-7-7-7-7-7-|
|-7-7-7-7-7-7-7-7-|-7-7-7-7-7-7-7-7-|-7-7-7-7-7-7-7-7-|-7-7-7-7-7-7-7-7-|
|-7-7-7-7-7-7-7-7-|-7-7-7-7-7-7-7-7-|-7-7-7-7-7-7-7-7-|-7-7-7-7-7-7-7-7-|
|-5-5-5-5-5-5-5-5-|-5-5-5-5-5-5-5-5-|-5-5-5-5-5-5-5-5-|-5-5-5-5-5-5-5-5-|
|-----------------|-----------------|-----------------|-----------------|


|-------4-7-------|-------4-7-------|-------4-7-------|-------4-7-------|
|---5-7-----------|---5-7-----------|---5-7-----------|---5-7-----------|
|-6---------------|-6---------------|-6---------------|-6---------------|
|-----------------|-----------------|-----------------|-----------------|
|-----------------|-----------------|-----------------|-----------------|
|-----------------|-----------------|-----------------|-----------------|
|
|-----------------|-----------------|-----------------|-----------------|
|-9-9-9-9-9-9-9-9-|-9-9-9-9-9-9-9-9-|-9-9-9-9-9-9-9-9-|-9-9-9-9-9-9-9-9-|
|-9-9-9-9-9-9-9-9-|-9-9-9-9-9-9-9-9-|-9-9-9-9-9-9-9-9-|-9-9-9-9-9-9-9-9-|
|-9-9-9-9-9-9-9-9-|-9-9-9-9-9-9-9-9-|-9-9-9-9-9-9-9-9-|-9-9-9-9-9-9-9-9-|
|-7-7-7-7-7-7-7-7-|-7-7-7-7-7-7-7-7-|-7-7-7-7-7-7-7-7-|-7-7-7-7-7-7-7-7-|
|-----------------|-----------------|-----------------|-----------------|


|-------4-7-------|-------4-7-------|-------4-7-------|-------4-7-------|
|---5-7-----------|---5-7-----------|---5-7-----------|---5-7-----------|
|-6---------------|-6---------------|-6---------------|-6---------------|
|-----------------|-----------------|-----------------|-----------------|
|-----------------|-----------------|-----------------|-----------------|
|-----------------|-----------------|-----------------|-----------------|
|
|-----------------|-----------------|-----------------|-----------------|
|-----------------|-----------------|-----------------|-----------------|
|-8-8-8-8-8-8-8-8-|-8-8-8-8-8-8-8-8-|-8-8-8-8-8-8-8-8-|-8-8-8-8-8-8-8-8-|
|-9-9-9-9-9-9-9-9-|-9-9-9-9-9-9-9-9-|-9-9-9-9-9-9-9-9-|-9-9-9-9-9-9-9-9-|
|-9-9-9-9-9-9-9-9-|-9-9-9-9-9-9-9-9-|-9-9-9-9-9-9-9-9-|-9-9-9-9-9-9-9-9-|
|-7-7-7-7-7-7-7-7-|-7-7-7-7-7-7-7-7-|-7-7-7-7-7-7-7-7-|-7-7-7-7-7-7-7-7-|

 Loud lead guitar
|---------4-------|-----4-----------|-4-----------4---|---------4-------|
|---4-5-7-------4-|-5-7-------4-5-7-|-------4-5-7-----|---4-5-7-------4-|
|-6---------4-6---|-------4-6-------|---4-6---------4-|-6---------4-6---|
|-----------------|-----------------|-----------------|-----------------|
|-----------------|-----------------|-----------------|-----------------|
|-----------------|-----------------|-----------------|-----------------|
|
|-----------------|-----------------|-----------------|-----------------|
|-9-9-9-9-9-9-9-9-|-9-9-9-9-9-9-9-9-|-9-9-9-9-9-9-9-9-|-9-9-9-9-9-9-9-9-|
|-9-9-9-9-9-9-9-9-|-9-9-9-9-9-9-9-9-|-9-9-9-9-9-9-9-9-|-9-9-9-9-9-9-9-9-|
|-9-9-9-9-9-9-9-9-|-9-9-9-9-9-9-9-9-|-9-9-9-9-9-9-9-9-|-9-9-9-9-9-9-9-9-|
|-7-7-7-7-7-7-7-7-|-7-7-7-7-7-7-7-7-|-7-7-7-7-7-7-7-7-|-7-7-7-7-7-7-7-7-|
|-----------------|-----------------|-----------------|-----------------|


|-----4-----------|-4-----------4---|---------4-------|-----4-----------|
|-5-7-------4-5-7-|-------4-5-7-----|---4-5-7-------4-|-5-7-------4-5-7-|
|-------4-6-------|---4-6---------4-|-6---------4-6---|-------4-6-------|
|-----------------|-----------------|-----------------|-----------------|
|-----------------|-----------------|-----------------|-----------------|
|-----------------|-----------------|-----------------|-----------------|
|
|-----------------|-----------------|-----------------|-----------------|
|-----------------|-----------------|-----------------|-----------------|
|-6-6-6-6-6-6-6-6-|-6-6-6-6-6-6-6-6-|-6-6-6-6-6-6-6-6-|-6-6-6-6-6-6-6-6-|
|-7-7-7-7-7-7-7-7-|-7-7-7-7-7-7-7-7-|-7-7-7-7-7-7-7-7-|-7-7-7-7-7-7-7-7-|
|-7-7-7-7-7-7-7-7-|-7-7-7-7-7-7-7-7-|-7-7-7-7-7-7-7-7-|-7-7-7-7-7-7-7-7-|
|-5-5-5-5-5-5-5-5-|-5-5-5-5-5-5-5-5-|-5-5-5-5-5-5-5-5-|-5-5-5-5-5-5-5-5-|


|-4-----------4---|---------4-------|-----4-----------|-4-----------4---|
|-------4-5-7-----|---4-5-7-------4-|-5-7-------4-5-7-|-------4-5-7-----|
|---4-6---------4-|-6---------4-6---|-------4-6-------|---4-6---------4-|
|-----------------|-----------------|-----------------|-----------------|
|-----------------|-----------------|-----------------|-----------------|
|-----------------|-----------------|-----------------|-----------------|
|
|-----------------|-----------------|-----------------|-----------------|
|-----------------|-----------------|-----------------|-----------------|
|-4-4-4-4-4-4-4-4-|-4-4-4-4-4-4-4-4-|-4-4-4-4-4-4-4-4-|-4-4-4-4-4-4-4-4-|
|-6-6-6-6-6-6-6-6-|-6-6-6-6-6-6-6-6-|-6-6-6-6-6-6-6-6-|-6-6-6-6-6-6-6-6-|
|-6-6-6-6-6-6-6-6-|-6-6-6-6-6-6-6-6-|-6-6-6-6-6-6-6-6-|-6-6-6-6-6-6-6-6-|
|-4-4-4-4-4-4-4-4-|-4-4-4-4-4-4-4-4-|-4-4-4-4-4-4-4-4-|-4-4-4-4-4-4-4-4-|


|---------4-------|-----4-----------|-4-----------4---|---------4-------|
|---4-5-7-------4-|-5-7-------4-5-7-|-------4-5-7-----|---4-5-7-------4-|
|-6---------4-6---|-------4-6-------|---4-6---------4-|-6---------4-6---|
|-----------------|-----------------|-----------------|-----------------|
|-----------------|-----------------|-----------------|-----------------|
|-----------------|-----------------|-----------------|-----------------|
|
|-----------------|-----------------|-----------------|-----------------|
|-----------------|-----------------|-----------------|-----------------|
|-8-8-8-8-8-8-8-8-|-8-8-8-8-8-8-8-8-|-8-8-8-8-8-8-8-8-|-8-8-8-8-8-8-8-8-|
|-9-9-9-9-9-9-9-9-|-9-9-9-9-9-9-9-9-|-9-9-9-9-9-9-9-9-|-9-9-9-9-9-9-9-9-|
|-9-9-9-9-9-9-9-9-|-9-9-9-9-9-9-9-9-|-9-9-9-9-9-9-9-9-|-9-9-9-9-9-9-9-9-|
|-7-7-7-7-7-7-7-7-|-7-7-7-7-7-7-7-7-|-7-7-7-7-7-7-7-7-|-7-7-7-7-7-7-7-7-|


|-----4-----------|-4-----------4---|---------4-------|-----4-----------|
|-5-7-------4-5-7-|-------4-5-7-----|---4-5-7-------4-|-5-7-------4-5-7-|
|-------4-6-------|---4-6---------4-|-6---------4-6---|-------4-6-------|
|-----------------|-----------------|-----------------|-----------------|
|-----------------|-----------------|-----------------|-----------------|
|-----------------|-----------------|-----------------|-----------------|
|
|-----------------|-----------------|-----------------|-----------------|
|-----------------|-----------------|-----------------|-----------------|
|-6-6-6-6-6-6-6-6-|-6-6-6-6-6-6-6-6-|-6-6-6-6-6-6-6-6-|-6-6-6-6-6-6-6-6-|
|-7-7-7-7-7-7-7-7-|-7-7-7-7-7-7-7-7-|-7-7-7-7-7-7-7-7-|-7-7-7-7-7-7-7-7-|
|-7-7-7-7-7-7-7-7-|-7-7-7-7-7-7-7-7-|-7-7-7-7-7-7-7-7-|-7-7-7-7-7-7-7-7-|
|-5-5-5-5-5-5-5-5-|-5-5-5-5-5-5-5-5-|-5-5-5-5-5-5-5-5-|-5-5-5-5-5-5-5-5-|


|-4-----------4---|---------4-------|-----4-----------|-4-----------4---|
|-------4-5-7-----|---4-5-7-------4-|-5-7-------4-5-7-|-------4-5-7-----|
|---4-6---------4-|-6---------4-6---|-------4-6-------|---4-6---------6-|
|-----------------|-----------------|-----------------|-----------------|
|-----------------|-----------------|-----------------|-----------------|
|-----------------|-----------------|-----------------|-----------------|
|
|-----------------|-----------------|-----------------|-----------------|
|-----------------|-----------------|-----------------|-----------------|
|-6-6-6-6-6-6-6-6-|-6-6-6-6-6-6-6-6-|-6-6-6-6-6-6-6-6-|-6-6-6-6-6-6-6-6-|
|-7-7-7-7-7-7-7-7-|-7-7-7-7-7-7-7-7-|-7-7-7-7-7-7-7-7-|-7-7-7-7-7-7-7-7-|
|-7-7-7-7-7-7-7-7-|-7-7-7-7-7-7-7-7-|-7-7-7-7-7-7-7-7-|-7-7-7-7-7-7-7-7-|
|-5-5-5-5-5-5-5-5-|-5-5-5-5-5-5-5-5-|-5-5-5-5-5-5-5-5-|-5-5-5-5-5-5-5-5-|

Lead guitar continues to repeat 6-note pattern over last chorus
Добавлено: 23.05.2016
Другие материалы по этой песне:
  • Аккорды и текст

Страница создана 23.05.2016
http://primanota.ru/fucked-up/little-death-chords.htm
Привет, Гость.
Предлагаем пройти революционный курс по гитаре.
Подарок от PrimaNota.Ru, забирай!