PrimaNota.ru - самый крупный в мире бесплатный архив песенных текстов, аккордов, табулатур и нот


Fuck Im Dead - Fucking The Foetus - таба, видео

Регистрация Запомнить меня
Войти через:  Facebook Google Twitter Vk Yandex Mail.ru

Fuck Im Dead - Fucking The Foetus - таба, видео

Печатать
Просмотров: 101
Intro (play twice)
---------------------|
---------------------|
---------------------|
---------------------|
-0--1--0-----2---2ph-|
-0--1--0---0---0-----|
           .   .

Riff 1 (play 4 times)
------------------------------------|
------------------------------------|
------------------------------------|
------------------------------------|
-5-6-5-----2---3-5-6-5-----2---2ph--|
-------6-0---0---------6-0---0------|
         .   .           .   .

Fill 1
------------|
------------|
------------|
------------|
-0-----1-0--|
-0-----1-0--|

Riff 2 (play 4 times)
---------------|
---------------|
---------------|
---------------|
---3322--3322--|
-22----22------|
 ............

Fill 1
-------|
-------|
-------|
-------|
-5-6-3-|
-5-6-3-|

Riff 3 (play twice)
------------------------------------------------------------------|
------------------------------------------------------------------|
------------------------------------------------------------------|
------------------------------------------------------------------|
-33335555666655553333555566665555---------------------------------|
---------------------------------0h1h2h3-0h1h2h3-0h1h2h3-0h1h2h3--|

Riff 1 x 1/2

Fill 1
----------------------------------|
----------------------------------|
----------------------------------|
----------------------------------|
---3---5---3---5---3---5---5-3-2--|
-0-3-0-5-0-3-0-5-0-3-0-5-0-5-3-2--|
 .   .   .   .   .   .

Riff 4
-----------------------------------------------------------------------|
-----------------------------------------------------------------------|
-----------------------------------------------------------------------|
-----------------------------------------------------------------------|
--------------------------------------5-3-2----------------------------|
-222255556666222255556666222255556666-5-3-2\\-0-0-0-3-0-0-0-0-0-5-0-0--|
                                              . . .   . . . . .   . .

Riff 5 (play twice)
-------------------------|
-------------------------|
-------------------------|
-------------------------|
-0-----1-0------2---2ph--|
-0-----1-0----0---0------|
              .   .
End
------------------------------------|
------------------------------------|
------------------------------------|
------------------------------------|
---6-5-3---6-5-3---6-5-3---2---2ph--|
-0-------0-------0-------0---0------|
                         .   .
Добавлено: 21.05.2012
Другие материалы по этой песне:
  • Аккорды и текст

Страница создана 21.05.2012
http://primanota.ru/fuck-im-dead/fucking-the-foetus-chords.htm
Привет, Гость.
Предлагаем пройти революционный курс по гитаре.
Подарок от PrimaNota.Ru, забирай!