PrimaNota.ru - самый крупный в мире бесплатный архив песенных текстов, аккордов, табулатур и нот


Fuck Im Dead - Delicious Dollop - таба, видео

Регистрация Запомнить меня
Войти через:  Facebook Google Twitter Vk Yandex Mail.ru

Fuck Im Dead - Delicious Dollop - таба, видео

Печатать
Просмотров: 105

Band: Fuck...I'm Dead 
Album: Bring On The Dead 
Song: Delicious Dollop 

Copyright (c) Razorback Records, 2001 


Code: 
. - palm mute           / - slide up to 
\ - slide down to       x – Staccato 
h - hammer on           p - pull off 
, - slight palm mute    () - ghost note, sustained note 
" - tremolo note        <> - Trill 
L – left channel only   R – right channel only 
* - see comment 

Suffixes for bend 
f - full bend       h - half bend 
q - quarter bend    t - tap bend 
^ - Hold bend       r - release bend 
~ - vibrato bend 

Suffixes for harmonic 
ph - pinched harmonic   n – natural/artificial harmonic 

Tuning B F# B E G# C# 

Riff 1 (0:00) play 5 times 
|------------------------------| 
|------------------------------| 
|------------------------------| 
|------------------------------| 
|-2------1--0--1------2ph------| 
|-2--2-2-1--0--1--1-1------1-1-| 
     . .          . .      . . 

Fill 1 (0:13) play twice 
|-------------------------------------| 
|-------------------------------------| 
|----------2--------------------------| 
|-------0-----------------------------| 
|----------------3--2-----2--1--2--5--| 
|-0--3--------2--------3--2--1--2--5--| 

Riff 2a (0:17) 
|----------------------------------| 
|----------------------------------| 
|----------------------------------| 
|----------------------------------| 
|-----33332222---------------------| 
|-2222--------33332222111155552222-| 

Riff 2b (0:20)  play 4 times 
|-------------------| 
|-------------------| 
|-------------------| 
|-------------------| 
|---3322------------| 
|-22----3322112255--| 


Riff 3a (0:25) 
|----------------------------------| 
|----------------------------------| 
|----------------------------------| 
|---------------------------2---2--| 
|----------------------------------| 
|-2-2-2-222-2-2-222-2-2-2-2---2----| 
  . . . ... . . ... . . . .   . 

Riff 3b (0:28) 
|------------------------------------| 
|------------------------------------| 
|------------------------------------| 
|------------------------------------| 
|---------------------------3\2-6-7--| 
|-2-2-2-222-2-2-222-8\2-2-2----------| 
  . . . ... . . ...   . . .     , , 

Riff 3a x 1 (0:30) 
Riff 3b x 1 (0:33) 


Fill 2 (0:36) 
|--------------------------| 
|--------------------------| 
|-------2------------------| 
|-----0--------------------| 
|--------------------------| 
|-0-3-----2222111122225555-| 

Riff 2a x 1 (0:39) 
Riff 2b x 2 (0:41) 

End




Добавлено: 27.07.2012
Другие материалы по этой песне:
  • Аккорды и текст

Страница создана 27.07.2012
http://primanota.ru/fuck-im-dead/delicious-dollop-chords.htm
Привет, Гость.
Предлагаем пройти революционный курс по гитаре.
Подарок от PrimaNota.Ru, забирай!