PrimaNota.ru - самый крупный в мире бесплатный архив песенных текстов, аккордов, табулатур и нот


Fubar - Rock And Roll Is My Guitar - таба, видео

Регистрация Запомнить меня
Войти через:  Facebook Google Twitter Vk Yandex Mail.ru

Fubar - Rock And Roll Is My Guitar - таба, видео

Печатать
Просмотров: 105
Artist: Deaner
Band: Fubar (the movie)
Song: Rock n' Roll is my guitar
Original tab by: Ed Holmes, Vancouver B.C.


Here is my version of Rock n' Roll Is My guitar, as played by
Deaner. It's pretty fast to learn. Just giv'r!



INTRO:

E-------------------------------------------------------------
B-8-----8------9-----9------8-----8------6-----6--------------
G---8-----8------8-----8------8-----8------7-----7------------
D-8---8-----8--8---8-----8--8---8-----8--8---8-----8----------
A-------------------------------------------------------------
E-------------------------------------------------------------

                                             (let it fade....)
E-------------------------------------------------------------
B-8-----8------9-----9------6-----6------4-----4--------------
G---8-----8------8-----8------7-----7------3------------------
D-8---8-----8--8---8-----8--8---8-----8--5---5----------------
A-------------------------------------------------------------
E-------------------------------------------------------------

VERSE 1:

Repeat above, with words

Rock and roll.......
Girls electricity.....
If I got.........
I got all.....

VERSE 2:

Repeat above again, with different words

I could live.....
I know that.......
But life without.....
Would break my......


CHORUS:

Strum power chords- I find it works well to strum kind of
"down---down-up---up-down"


E---------------6------------4-------------6-----------6--------
B---------------8------------4-------------8-----------6--------
G---------------8------------5-------------8-----------7--------
D---------------8------------6-------------8-----------8--------
A---------------6------------6-------------6-----------8--------
E---------------x------------4-------------x-----------6--------

Cause rock n' roll....     ..game......    stop.....   time....

E---------------4------------4-------------6-----------6--------
B---------------4------------4-------------8-----------6--------
G---------------5------------5-------------8-----------7--------
D---------------6------------6-------------8-----------8--------
A---------------6------------6-------------6-----------8--------
E---------------4------------4-------------x-----------6--------

         serious thing...                 like war and crime...


E---------------6------------4-------------6-----------6--------
B---------------8------------4-------------8-----------6--------
G---------------8------------5-------------8-----------7--------
D---------------8------------6-------------8-----------8--------
A---------------6------------6-------------6-----------8--------
E---------------x------------4-------------x-----------6--------

     Rock n' roll....     ..game......    know.....   rules....

E---------------4------------4------------4------------6--------
B---------------4------------4------------4------------6--------
G---------------5------------5------------5------------7--------
D---------------6------------6------------6------------8--------
A---------------6------------6------------6------------8--------
E---------------4------------4------------4------------6--------

         pick up your guitar...                      fool....


Now repeat the intro while singing "Woman is a danger cat"

If you have any questions or comments on this (my first tab),
email me at ed_21415@hotmail.com


Tron funkin blow
     
Добавлено: 17.08.2013
Вам также может быть интересно:
Другие материалы по этой песне:
  • Аккорды и текст

Страница создана 17.08.2013
http://primanota.ru/fubar/rock-and-roll-is-my-guitar-chords.htm
Привет, Гость.
Предлагаем пройти революционный курс по гитаре.
Подарок от PrimaNota.Ru, забирай!